Plus-44

Your My Angel (intro)

Plus-44

tabs Intermediate intermediate

by  DAHOOOMIE

save to print version add songbook text version e-mail correct tuner
chordsukulelecavacokeyboardtabbassdrumsharmonicaflute Guitar Pro
close

there isn't a video lesson for this song

chords

Your My Angel (intro)

	  		Tabbed by DaHooomie 

Pretty easy to play. Enjoy! 

e|------------------------------ 
B|------------------------------ 
G|------------------------------ 
D|-9----8-9-8----8-9-8---6------ 
A|-----------9---------7---9---- 
E|------------------------------ 

e|------------------------------ 
B|------------------------------ 
G|------------------------------ 
D|------------------------------ 
A|-6-9-6-----6------------------ 
E|-------9-7---9-7-------------- 

e|------------------------------ 
B|------------------------------ 
G|------------------------------ 
D|------------------------------ 
A|-6-9-6-----6------------------ 
E|-------9-7---9-7-------------- 
		  

See also:

tabs Blink 182 - Carousel tabs Blink 182 - Stay Together 4 the Kids tabs Green Day - Jesus of Suburbia tabs Goo Goo Dolls - Iris (Acoustic) tabs Blink 182 - What´s My Age Again ? tabs Green Day - Wake Me Up When September Ends
e-chords

Other versions:

tabs Plus-44 - Your My Angel (intro)
auto scroll beats size up size down change color hide chords drawings
tab show chords e-chords YouTube Clip e-chords hide all tabs e-chords go to top tab

share