Plus-44

When Your Heart Stops Beating

Plus-44

tabs Easy easy

by  KAHELL 182

save to print version add songbook text version e-mail correct tuner
chordsukulelecavacokeyboardtabbassdrumsharmonicaflute Guitar Pro
close

there isn't a video lesson for this song

chords

When Your Heart Stops Beating

	  		Intro (2x) 
|--------------------------------------8-----| 
|-10--------------------10----------------10-| 
|----9---9----9--12--------9---9----9--------| 
|------7---10----------------7---10----------| 
|-------------------10-----------------------| 
|--------------------------------------------| 
 
 
Verse (4x) 
|------------------------------------| 
|------------------------------------| 
|------------------55555555----------| 
|-7777777777777777-55555555-55555555-| 
|-7777777777777777-33333333-55555555-| 
|-5555555555555555----------33333333-| 
 
 
Chorus (2x) 
|-------------------------------------| 
|-------------------------------------| 
|----------55555555-------------------| 
|-33333333-55555555-22222222-77777777-| 
|-33333333-33333333-22222222-77777777-| 
|-11111111----------00000000-55555555-| 
 
 
Bridge 1 
|--------------------------------| 
|--------------------------------| 
|-9-9-5--7-7-5---9-9-5--7-7-5----| 
|--------------------------------| 
|-7-7-3--5-5-3---7-7-3--5-5-3----| 
|--------------------------------| 
 
|---------------------------------| 
|---------------------------------| 
|-9-9-5--7-7-5--9-9-5--88-77-88-7-| 
|---------------------------------| 
|-7-7-3--5-5-3--7-7-3--66-55-66-5-| 
|---------------------------------| 
 
 
Bridge 2 
|--------------------------------------8-----| 
|-10--------------------10----------------10-| 
|----9---9----9--12--------9---9----9--------| 
|------7---10----------------7---10----------| 
|-------------------10-----------------------| 
|--------------------------------------------| 
 
 
Verse (2x) 
|------------------------------------| 
|------------------------------------| 
|------------------55555555----------| 
|-7777777777777777-55555555-55555555-| 
|-7777777777777777-33333333-55555555-| 
|-5555555555555555----------33333333-| 
 
 
Chorus (2x) 
|-------------------------------------| 
|-------------------------------------| 
|----------55555555-------------------| 
|-33333333-55555555-22222222-77777777-| 
|-33333333-33333333-22222222-77777777-| 
|-11111111----------00000000-55555555-| 
 
 
Bridge 1 
|--------------------------------| 
|--------------------------------| 
|-9-9-5--7-7-5---9-9-5--7-7-5----| 
|--------------------------------| 
|-7-7-3--5-5-3---7-7-3--5-5-3----| 
|--------------------------------| 
 
|--------------------------------| 
|--------------------------------| 
|-9-9-5--7-7-5--9-9-5--88-77-88-7| 
|--------------------------------| 
|-7-7-3--5-5-3--7-7-3--66-55-66-5| 
|--------------------------------| 
 
 
Bridge 2 
|------------------------------------| 
|------------------------------------| 
|-5----5----5----4--5----5----5----4-| 
|---7----7----7-------7----7----7----| 
|------------------------------------| 
|------------------------------------| 
 
|----------------------------| 
|----------------------------| 
|-------------------5-5-5-5--| 
|-7-7-7-7--7-7-7-7--5-5-5-5--| 
|-7-7-7-7--7-7-7-7--3-3-3-3--| 
|-5-5-5-5--5-5-5-5-----------| 
 
|-------------------------| 
|-------------------------| 
|-------------------------| 
|5-5-5-5-5-5-5-5--7-7-7-7-| 
|5-5-5-5-5-5-5-5--7-7-7-7-| 
|3-3-3-3-3-3-3-3--5-5-5-5-| 
 
 
Bridge 3 (3x) 
|------------------------------| 
|------------------------------| 
|------------------9--9-9------| 
|-10-9-10--10-9-10--------10-9-| 
|------------------------------| 
|------------------------------| 
 
 
Chorus (2x) 
|-------------------------------------| 
|-------------------------------------| 
|----------55555555-------------------| 
|-33333333-55555555-22222222-77777777-| 
|-33333333-33333333-22222222-77777777-| 
|-11111111----------00000000-55555555-| 
 
 
Bridge 1 (4x) 
|--------------------------------| 
|--------------------------------| 
|-9-9-5--7-7-5---9-9-5--7-7-5----| 
|--------------------------------| 
|-7-7-3--5-5-3---7-7-3--5-5-3----| 
|--------------------------------| 
 
 
End (Let Ring) 
|---| 
|---| 
|---| 
|-7-| 
|-7-| 
|-5-| 

		  

See also:

tabs 30 Seconds To Mars - The Kill tabs Blink 182 - I miss you (solo) tabs Blink 182 - Anthem Part II tabs Blink 182 - Adams Song tabs Blink 182 - Aliens Exist tabs Green Day - Boulevard Of Broken Dreams (ver. 2)
e-chords

Other versions:

tabs Plus-44 - When Your Heart Stops Beating tabs Plus-44 - When Your Heart Stops Beating (ver. 2)
auto scroll beats size up size down change color hide chords drawings
tab show chords e-chords YouTube Clip e-chords hide all tabs e-chords go to top tab

share