Plus-44

home > Plus-44

No It Isn't (ver. 2 ) Tab

Plus-44

Difficulty: ExpertExpert

by fboy

tuner correct add songbook print version text version save to e-mail
chordsukulelecavacokeyboardtabbassdrumsharmonicsflute Guitar Pro
chords

No It Isn't (ver. 2 )

  		Intro/Verse:      Play whole thing twice. 
e|--------------------------------------------------------------------------------------| 
B|-0---0---0-0-0--0-0-0--0-0-0----0-00-000-000-000--------------------0-00-000-000-000--| 
G|-0---0---0-0-0--0-0-0--0-0-0----0-00-000-000-000--0-00-000-000-000--0-00-000-000-000--| 
D|-11--11--111111-111111-111111---7-77-777-777-777--0-00-000-000-000--9-99-999-999-999--|  
A|-9---9---9-9-9--9-9-9--9-9-9----5-55-555-555-555--7-77-777-777-777--7-77-777-777-777--| 
E|--------------------------------------------------5-55-555-555-555--------------------| 
   ^ Those are eleven's. 

e|--------------------------------------------------------------------------------------| 
B|-0---0---0-0-0--0-0-0--0-0-0----0-00-000-000-000--------------------------------------| 
G|-0---0---0-0-0--0-0-0--0-0-0----0-00-000-000-000--0-00-000-000-000--0-00-000-000-000--| 
D|-11--11--111111-111111-111111---7-77-777-777-777--0-00-000-000-000--6-66-666-666-666--| 
A|-9---9---9-9-9--9-9-9--9-9-9----5-55-555-555-555--7-77-777-777-777--7-77-777-777-777--| 
E|--------------------------------------------------5-55-555-555-555--4-44-444-444-444--|    
   ^ Those are eleven's. 




Chorus: 
e|---------------------------------------------------------------------------------| 
B|-0-0-000-0000-0--0--0-00-000-000-000--0--0-0--0-0-0---0-00-000--0-00-000-000-000-| 
G|-4-4-444-4444-4--0--0-00-000-000-000--0--0-0--0-0-0---0-00-000--0-00-000-000-000-| 
D|-4-4-444-4444-4--6--7-77-777-777-777--11-1111-111111--9-99-999--7-77-777-777-777-| 
A|-0-0-000-0000-0--4--5-55-555-555-555--9--9-9--9-9-9---7-77-777--5-55-555-555-555-| 
E|---------------------------------------------------------------------------------| 

e|----------------------------------------------------------------------------------| 
B|-0-0-000-0000-0--0--0-00-000-000-000--0--0-0--0-0-0---0-00-000-0-00-000--0-00-000-| 
G|-4-4-444-4444-4--0--0-00-000-000-000--0--0-0--0-0-0---0-00-000-0-00-000--0-00-000-| 
D|-4-4-444-4444-4--6--7-77-777-777-777--11-1111-111111--9-99-999-7-77-777--7-77-777-| 
A|-0-0-000-0000-0--4--5-55-555-555-555--9--9-9--9-9-9---7-77-777-5-55-555--4-44-444-| 
E|----------------------------------------------------------------------------------| 




Verse:          Play whole thing twice. 
e|--------------------------------------------------------------------------------------| 
B|-0---0---0-0-0--0-0-0--0-0-0----0-00-000-000-000--------------------0-00-000-000-000--| 
G|-0---0---0-0-0--0-0-0--0-0-0----0-00-000-000-000--0-00-000-000-000--0-00-000-000-000--| 
D|-11--11--111111-111111-111111---7-77-777-777-777--0-00-000-000-000--9-99-999-999-999--|  
A|-9---9---9-9-9--9-9-9--9-9-9----5-55-555-555-555--7-77-777-777-777--7-77-777-777-777--| 
E|--------------------------------------------------5-55-555-555-555--------------------| 
   ^ Those are eleven's. 

e|--------------------------------------------------------------------------------------| 
B|-0---0---0-0-0--0-0-0--0-0-0----0-00-000-000-000--------------------------------------| 
G|-0---0---0-0-0--0-0-0--0-0-0----0-00-000-000-000--0-00-000-000-000--0-00-000-000-000--| 
D|-11--11--111111-111111-111111---7-77-777-777-777--0-00-000-000-000--6-66-666-666-666--| 
A|-9---9---9-9-9--9-9-9--9-9-9----5-55-555-555-555--7-77-777-777-777--7-77-777-777-777--| 
E|--------------------------------------------------5-55-555-555-555--4-44-444-444-444--| 
   ^ Those are eleven's. 




Chorus: 
e|---------------------------------------------------------------------------------| 
B|-0-0-000-0000-0--0--0-00-000-000-000--0--0-0--0-0-0---0-00-000--0-00-000-000-000-| 
G|-4-4-444-4444-4--0--0-00-000-000-000--0--0-0--0-0-0---0-00-000--0-00-000-000-000-| 
D|-4-4-444-4444-4--6--7-77-777-777-777--11-1111-111111--9-99-999--7-77-777-777-777-| 
A|-0-0-000-0000-0--4--5-55-555-555-555--9--9-9--9-9-9---7-77-777--5-55-555-555-555-| 
E|---------------------------------------------------------------------------------| 

e|----------------------------------------------------------------------------------| 
B|-0-0-000-0000-0--0--0-00-000-000-000--0--0-0--0-0-0---0-00-000-0-00-000--0-00-000-| 
G|-4-4-444-4444-4--0--0-00-000-000-000--0--0-0--0-0-0---0-00-000-0-00-000--0-00-000-| 
D|-4-4-444-4444-4--6--7-77-777-777-777--11-1111-111111--9-99-999-7-77-777--7-77-777-| 
A|-0-0-000-0000-0--4--5-55-555-555-555--9--9-9--9-9-9---7-77-777-5-55-555--4-44-444-| 
E|----------------------------------------------------------------------------------| 



Bridge: 

e|--------------------------------------| 
B|-------------------0-00-000--0-00-000-| 
G|--0-0-000-000-000--4-44-444--0-00-000-| 
D|--0-0-000-000-000--4-44-444--7-77-777-| 
A|--7-7-777-777-777--0-00-000--5-55-555-| x4 
E|--5-5-555-555-555---------------------| 



Final Chorus:    Distorted     Remember - No Capo. 
e|------------------------------------------------------------------------------| 
B|------------------------------------------------------------------------------| 
G|------------------------------------------------------------------------------| 
D|-4-4-444-4444-4--6--7-77-777-777-777-------------------------7-77-777-777-777-| 
A|-2-2-222-2222-2--4--5-55-555-555-555--4--44--444--2--22-222--5-55-555-555-555-| 
E|--------------------------------------2--22--222--0--00-000-------------------| 

e|--------------------------------------------------------------------------------| 
B|--------------------------------------------------------------------------------| 
G|--------------------------------------------------------------------------------| 
D|-4-4-444-4444-4--6--7-77-777-777-777-------------------------7-77-777--7-77-777-| 
A|-2-2-222-2222-2--4--5-55-555-555-555--4--44--444--2--22-222--5-55-555--4-44-444-| 
E|--------------------------------------2--22--222--0--00-000---------------------| 

e|-----------------------------------------------------------------------------| 
B|-----------------------------------------------------------------------------| 
G|-----------------------------------------------------------------------------| 
D|-4-4-444-4444-4--6--7-77-777-777-777-----------------------7-77-777-777-777--| 
A|-2-2-222-2222-2--4--5-55-555-555-555--4-2-4-44-444-444-444-5-55-555-555-555--| 
E|--------------------------------------2-0-2-22-222-222-222-------------------| 



e|--------------------------------------------------------------------------| 
B|--------------------------------------------------------------------------| 
G|--------------------------------------------------------------------------| 
D|--------------------7-77-777-777-777--------------------9-99-999-999-999--|  
A|-44-2-444-444-444---5-55-555-555-555--7-77-777-777-777--7-77-777-777-777--| 
E|-22-0-222-222-222---------------------5-55-555-555-555--------------------| 

e|----------------------------------------------------------------------------| 
B|----------------------------------------------------------------------------| 
G|----------------------------------------------------------------------------| 
D|----------------------7-77-777-777-777--------------------9-99-999-999-999--|  
A|-44--44-444-444-444---5-55-555-555-555--7-77-777-777-777--7-77-777-777-777--| 
E|-22--22-222-222-222---------------------5-55-555-555-555--------------------| 



e|--------------------------------------------| 
B|--------------------------------------------| 
G|--------------------------------------------| 
D|--------------------7-77-777-777-7777---7~--| 
A|--4-44-444-444-444--5-55-555-555-5555---7~--| 
E|--2-22-222-222-222----------------------5~--| 



| /  slide up 
| \  slide down 
| h  hammer-on 
| p  pull-off 
| ~  vibrato 
| +  harmonic 
| x  Mute note 


[email protected] 

	  

Search Paypal
auto scroll beats size up size down change color hide chords drawings
tab show chords e-chords YouTube Clip e-chords hide all tabs e-chords go to top tab