Plus-44

home > Plus-44

Make you smile Tab

Plus-44

Difficulty: AdvancedAdvanced

by fboy

tuner correct add songbook print version text version save to e-mail
chordsukulelecavacokeyboardtabbassdrumsharmonicsflute Guitar Pro
chords

Make you smile

  		Intro 

|----------------------------------------------| 
|----------------------------------------------| 
|--------11----------11---------9-7------------| 
|-----12----12----12----12----7----------------|  
|----------------------------------------------| 
|--10-----------9-----------5------------------| 

interlude and Chorus 

|--------------------------| 
|--------------------------| 
|--14--11--7--9------------| 
|--------------------------|  
|--12--9---5--7------------| 
|--------------------------| 

Verse  

|------------------------| 
|------------------------| 
|--7---------------------| 
|--7--7--5---------------|  
|--5--7--5---------------| 
|-----5--3---------------| 

Outro 

|----5-----5------5-----5------5-----5----5----| 
|-------------------------------------------7--| 
|--7---7-7---7--4---4-4---4--6---6-6---7-------| 
|----------------------------------------------|  
|----------------------------------------------|  
|----------------------------------------------| 

|----5-----5------5-------5------5-----5-------| 
|-------------------7--------------------------| 
|--7---7-7---7--4-----4-4---4--6---6-6---------| 
|----------------------------------------------|  
|----------------------------------------------|  
|----------------------------------------------| 



	  

Search Paypal
auto scroll beats size up size down change color hide chords drawings
tab show chords e-chords YouTube Clip e-chords hide all tabs e-chords go to top tab