Plus-44

home > Plus-44

Lycanthrope Tab

Plus-44

Difficulty: nolevelnolevel

by fboy

tuner correct add songbook print version text version save to e-mail
chordsukulelecavacokeyboardtabbassdrumsharmonicsflute Guitar Pro
chords

Lycanthrope

  		Intro 1 (GUITAR 1) (2x) 
|-------------------------------------| 
|(14x)---(3x)------(12x)-----(3x)-----| 
|-5--------7-------9---------10-------| 
|-X--------X-------X---- -----X-------| 
|-3--------5-------7----------8-------| 
|-------------------------------------| 

Intro 2 (GUITAR 1) (2X) 
Same as intro 1 

Intro 2 (GUITAR 2) (2x) 
First time : 
|----------------------------------| 
|-(14x)---(3x)---(12x)---(3x)------| 
|--/9------10------9-------7-------| 
|----------------------------------| 
|----------------------------------| 
|----------------------------------| 

Second time : 
|--------------------------------| 
|-(14x)---(3x)---(12x)---(3x)----| 
|--/9------10------9------14-----| 
|--------------------------------| 
|--------------------------------| 
|--------------------------------| 

Verse (BOTH GUITARS) (4x) 
|------------------------------------| 
|------------------------------------| 
|-(14x)--(3x)---(16x)----------------| 
|---7-----10------3------------------| 
|---7-----10------3------------------| 
|---5------8------1------------------| 

sometimes you can hear guitar 2 doing: 

|-----------------| 
|-----------------| 
|------9----------| 
|-7-9-------------| 
|-----------------| 
|-----------------| 
Intro 2 again 
Verse again 

Chorus (GUITAR 1) (4x) 
|-------------------| 
|--(8x)-------------| 
|---5---(8x)--(16x)-| 
|---5----5------7---| 
|---3----5------7---| 
|--------3------5---| 

Chorus (GUITAR 2) (indefinate times) 
|--13-13-11---------------| 
|-------------13-15-------| 
|-------------------------| 
|-------------------------| 
|-------------------------| 
|-------------------------| 

the 3rd and 6th time its 

|--13-13-11-------------------------| 
|-------------13-15-13-15-12--------| 
|-----------------------------------| 
|-----------------------------------| 
|-----------------------------------| 
|-----------------------------------| 

Interlude (BOTH GUITARS) (2x) 
|--------------------------------------------------| 
|--------------------------------------------------| 
|-5--12--10--9--10---5---12--10----9---5-----------| 
|-X---X---X---X---x---X----X----X----X---x---------| 
|-3--10---8---7---8---3---10---8----7---3----------| 
|--------------------------------------------------| 

|-------------------------------------| 
|(14x)---(3x)------(12x)-----(3x)-----| 
|-9--------10--------9---------7------| 
|-X--------X---------X---- -----X-----| 
|-7--------8---------7----------5-----| 
|-------------------------------------| 

then Chorus and intro till the end 

End on 
|---------| 
|---------| 
|-17------| 
|-17------| 
|-15------| 
|---------| 

ENJOY!! 

	  

Search Paypal
auto scroll beats size up size down change color hide chords drawings
tab show chords e-chords YouTube Clip e-chords hide all tabs e-chords go to top tab