Plus-44

home > Plus-44

Lillian Tab

Plus-44

Difficulty: nolevelnolevel

by fboy

tuner correct add songbook print version text version save to e-mail
chordsukulelecavacokeyboardtabbassdrumsharmonicsflute Guitar Pro
chords

Lillian

  		Intro 

e|---0-----------0----------0-----------0--------| 
b|--1-1---------1-1--1-----1-1---------1-1--1-0--| 
g|-2---2-------2---2------2---2-------2----2----2| 
d|3-----------3----------3-----------3-----------| 
a|-----------------------------------------------| 
e|-----------------------------------------------| 

Verse 
e|---0-----------0----------0-----------0--------| 
b|--1-1---------1-1--------1-1---------1-1-------| 
g|-2---2-------2---2------2---2-------2----2-----| 
d|3-----------3----------------------------------| 
a|-----------------------0-----------0-----------| 
e|-----------------------------------------------| 

e|---0-----------0----------0------------3-3-1-0-| 
b|--1-1---------1-1--------1-1-------------------| 
g|-2---2-------2---2------2---2-------2----------| 
d|3-----------3----------------------------------| 
a|-----------------------0-----------0-----------| 
e|-----------------------------------------------| 

Chorus 
e|-----------------------------------------------| 
b|-----------------------------------------------| 
g|77777777-55555555------------------------------| 
d|77777777-55555555-55555555---------------------| 
a|55555555-33333333-55555555---------------------| 
e|------------------33333333---------------------| 

Bridge 
e|-----------------------------------------------| 
b|-----------------------------------------------| 
g|55555555555555---------------------------------| 
d|55555555555555-222222-333333-------------------| 
a|33333333332222-000000-333333-------------------| 
e|----------------------111111-------------------| 

Outro 

e|---------0---------------0----0----------------| 
b|-1------1-1------1------1-1---1----------------| 
g|--2-2------2------2-2------2--2----------------| 
d|---3---------2-----3----------3----------------| 
a|-------------0---------------------------------| 
e|1------1--------1------1-----------------------| 

[email protected] 

	  

Search Paypal
auto scroll beats size up size down change color hide chords drawings
tab show chords e-chords YouTube Clip e-chords hide all tabs e-chords go to top tab