Plus-44

home > Plus-44

Interlude Tab

Plus-44

Difficulty: nolevelnolevel

by fboy

tuner correct add songbook print version text version save to e-mail
chordsukulelecavacokeyboardtabbassdrumsharmonicsflute Guitar Pro
chords

Interlude

  		e|-------3--------3--------------------| 
b|-----1--------1----5--0--1---1--0--5-| 
g|---2--------2------------------------| 
d|-3--------3--------------------------|x 1 
a|-------------------------------------| 
e|-------------------------------------| 


e:|--------3-------3---3--------------------| 
b:|------1-------1---1----5--0--1---1--0--5-| 
g:|----2-------2----------------------------| 
d:|--3-------3------------------------------|x 4 
a:|-----------------------------------------| 
e:|-----------------------------------------| 



e:|--------3-------3---3--0--0--------------| 
b:|------1-------1---1----5--0--------------| 
g:|----2-------2----------------------------| 
d:|--3-------3------------------------------|x 1 
a:|-----------------------------------------| 
e:|-----------------------------------------| 

	  

Search Paypal
auto scroll beats size up size down change color hide chords drawings
tab show chords e-chords YouTube Clip e-chords hide all tabs e-chords go to top tab