Plus-44

home > Plus-44

Chapter XIII Tab

Plus-44

Difficulty: IntermediateIntermediate

by fboy

tuner correct add songbook print version text version save to e-mail
chordsukulelecavacokeyboardtabbassdrumsharmonicsflute Guitar Pro
chords

Chapter XIII

  		/=Slide up 
\=Slide down 
r=Let Ring 
b=Bend String 
.=Palm Mute 
x=Mute string(dead Note) 
h=Hammer on 
P=Pull off 


INTRO (Main Riff) 

Guitar I 

|---------------------------|--------------------------| 
|---------------------------|--------------------------| 
|--11-11-11-11-11-11-11-10--|--11-11-11-11-11-11-10-9--|   
|--x--x--x--x--x--11-11-x---|--x--x--x--x--x--11-x--x--|              
|--9--9--9--9--9--9--9--9---|--9--9--9--9--9--9--9--9--|              
|---------------------------|--------------------------|            x2 
                                                                           
|---------------------------------|---------------------------|        
|---------------------------------|--------------------2-2-2--|         
|--11-11-11-11-11-14-18-18-18-18--|-11-11-11-11-11-2-2-2-2-2--|     
|--x--x--x--x--x--x--x--x--x--x---|-x--x--x--x--x--2-2-0-0-0--| 
|--9--9--9--9--9--12-16-16-16-16--|-9--9--9--9--9--0-0--------| 
|---------------------------------|---------------------------| 

Guitar II 

|------------------------|--------------------|  
|------------------------|--------------------| 
|--444444444444444444----|--2222222222222222--| x4 
|--444444444444444444----|--2222222222222222--| 
|--222222222222222222----|--0000000000000000--| 
|------------------------|--------------------| 


VERSE 

|---------------------------| 
|---------------------------| 
|--11-11-11-11-11-11-11-11--| x7 
|--x--x--x--x--x--x--x--x---| 
|--9--9--9--9--9--9--9--9---| 
|---------------------------| 
                                      x2 
|--------| 
|--b2-2--| 
|--b2-2--| 
|--------| 
|--------| 
|--------| 


Chorus 

|-------------------------------------------------------| 
|-------------------------------------------------------| 
|--7-7-7-7-7-7-7-7-7-7-7-7-7-7-7-7-7-7-7-7-7-7-7-7-7-6--| 
|--x-x-x-x-x-x-x-x-x-x-x-x-x-x-x-x-x-x-x-x-x-x-x-x-7-x--| 
|--5-5-5-5-5-5-5-5-5-5-5-5-5-5-5-5-5-5-5-5-5-5-5-5-5-5--| 
|-------------------------------------------------------| 

|-------------------------------------------| 
|---------------------------------------10--| 
|--11-11-11-11-11-11-11-11-11-11-10-h11-----| 
|--x--x--x--x--x--x--x--x--x--x-------------| 
|--9--9--9--9--9--9--9--9--9--9-------------| 
|-------------------------------------------| 

|--------------------------------------| 
|--------------------------------------| 
|--14-14-14-14-14-14-14-9-9-9-9-9-9-9--| 
|--x--x--x--x--x--x--x--x-x-x-x-x-x-x--| 
|--12-12-12-12-12-12-12-7-7-7-7-7-7-7--| 
|--------------------------------------| 

|-------------------------------------------------------| 
|-------------------------------------------------------| 
|--7-7-7-7-7-7-7-7-7-7-7-7-7-7-7-7-7-7-7-7-7-7-7-7-7-6--| 
|--x-x-x-x-x-x-x-x-x-x-x-x-x-x-x-x-x-x-x-x-x-x-x-x-7-x--| 
|--5-5-5-5-5-5-5-5-5-5-5-5-5-5-5-5-5-5-5-5-5-5-5-5-5-5--| 
|-------------------------------------------------------| 

|-------------------------------------------------------------| 
|---------------------------------------10--------------------| 
|--11-11-11-11-11-11-11-11-11-11-10-h11----14--14--14--14-14--| 
|--x--x--x--x--x--x--x--x--x--x------------x---x---x---x--14--| 
|--9--9--9--9--9--9--9--9--9--9------------12--12--12--12-12--| 
|-------------------------------------------------------------| 


POST Chorus (Main Riff) 

Guitar I 

|---------------------------|--------------------------| 
|---------------------------|--------------------------| 
|--11-11-11-11-11-11-11-10--|--11-11-11-11-11-11-10-9--|   
|--x--x--x--x--x--11-11-x---|--x--x--x--x--x--11-x--x--|              
|--9--9--9--9--9--9--9--9---|--9--9--9--9--9--9--9--9--|              
|---------------------------|--------------------------|             
                                                                           
|---------------------------------|---------------------------|        
|---------------------------------|--------------------2-2-2--|         
|--11-11-11-11-11-14-18-18-18-18--|-11-11-11-11-11-2-2-2-2-2--|     
|--x--x--x--x--x--x--x--x--x--x---|-x--x--x--x--x--2-2-0-0-0--| 
|--9--9--9--9--9--12-16-16-16-16--|-9--9--9--9--9--0-0--------| 
|---------------------------------|---------------------------| 

Guitar II 

|------------------------|--------------------|  
|------------------------|--------------------| 
|--444444444444444444----|--2222222222222222--| x2 
|--444444444444444444----|--2222222222222222--| 
|--222222222222222222----|--0000000000000000--| 
|------------------------|--------------------| 


VERSE 

|---------------------------| 
|---------------------------| 
|--11-11-11-11-11-11-11-11--| x7 
|--x--x--x--x--x--x--x--x---| 
|--9--9--9--9--9--9--9--9---| 
|---------------------------| 
                                      x2 
|--------| 
|--b2-2--| 
|--b2-2--| 
|--------| 
|--------| 
|--------| 


Chorus 

|-------------------------------------------------------| 
|-------------------------------------------------------| 
|--7-7-7-7-7-7-7-7-7-7-7-7-7-7-7-7-7-7-7-7-7-7-7-7-7-6--| 
|--x-x-x-x-x-x-x-x-x-x-x-x-x-x-x-x-x-x-x-x-x-x-x-x-7-x--| 
|--5-5-5-5-5-5-5-5-5-5-5-5-5-5-5-5-5-5-5-5-5-5-5-5-5-5--| 
|-------------------------------------------------------| 

|-------------------------------------------| 
|---------------------------------------10--| 
|--11-11-11-11-11-11-11-11-11-11-10-h11-----| 
|--x--x--x--x--x--x--x--x--x--x-------------| 
|--9--9--9--9--9--9--9--9--9--9-------------| 
|-------------------------------------------| 

|--------------------------------------| 
|--------------------------------------| 
|--14-14-14-14-14-14-14-9-9-9-9-9-9-9--| 
|--x--x--x--x--x--x--x--x-x-x-x-x-x-x--| 
|--12-12-12-12-12-12-12-7-7-7-7-7-7-7--| 
|--------------------------------------| 

|-------------------------------------------------------| 
|-------------------------------------------------------| 
|--7-7-7-7-7-7-7-7-7-7-7-7-7-7-7-7-7-7-7-7-7-7-7-7-7-6--| 
|--x-x-x-x-x-x-x-x-x-x-x-x-x-x-x-x-x-x-x-x-x-x-x-x-7-x--| 
|--5-5-5-5-5-5-5-5-5-5-5-5-5-5-5-5-5-5-5-5-5-5-5-5-5-5--| 
|-------------------------------------------------------| 

|-------------------------------------------------------------| 
|---------------------------------------10--------------------| 
|--11-11-11-11-11-11-11-11-11-11-10-h11----14--14--14--14-14--| 
|--x--x--x--x--x--x--x--x--x--x------------x---x---x---x--14--| 
|--9--9--9--9--9--9--9--9--9--9------------12--12--12--12-12--| 
|-------------------------------------------------------------| 


BRIDGE 

Guitar I 

|-----------------------------------------------| 
|-----------------------------------------------| 
|-------7-----7-----7-----7-----7-----7-----7---| x3 
|-------7-----7-----7-----7-----7-----7-----7---| 
|-r5-555-5-555-5-555-5-555-5-555-5-555-5-555-5--| 
|-----------------------------------------------| 

Guitar II 

|------------------------------------------------------------------| 
|--7---5---3--------/7--\5--\3--------/7--\5--\3--------7---5---3--| 
|------------------------------------------------------------------| 
|------------------------------------------------------------------| 
|------------------------------------------------------------------| 
|------------------------------------------------------------------| 



Guitar I 

|-----------------------------------| 
|-----------------------------------| 
|---7-----7-----7------------7-7-7--| 
|---7-----7-----7------------7-7-7--| 
|--5-555-5-555-5-55r5--------7-7-7--| 
|-----------------------------------| 


|-------------------------------| 
|-------------------------------| 
|--11-11-11-11-14--14-18-16-14--| x3 
|--x--x--x--x--x---x--x--x--x---|      
|--9--9--9--9--12--12-16-14-12--|        
|-------------------------------|          
                                            x2 
|-------------------------------| 
|-------------------------------|          
|--11-11-11-11-14--14-----------|        
|--x--x--x--x--x---x--14-14-14--|      
|--9--9--9--9--12--12-x--x--x---|    
|---------------------12-12-12--| 

|-------------------------------------------------------| 
|-------------------------------------------------------| 
|--11-11-11-11-11-11-11-11-11-11-11-11-11-11-11-11------| 
|--x--x--x--x--x--x--x--x--x--x--x--x--x--x--x--x-------| 
|--9--9--9--9--9--9--9--9--9--9--9--9--9--9--9--9-------| 
|-------------------------------------------------------| 

|-------------------| 
|-------------------| 
|--9-9-9-9-7-7-7-7--| 
|--x-x-x-x-x-x-x-x--| 
|--7-7-7-7-5-5-5-5--| 
|-------------------| 


VERSE 2 

|------------------------------------------------| 
|------------------------------------------------| x8 
|--9/11-11-11-11/9-9-9-9-9\7-7-7-7-2-222----7----| 
|--x/x--x--x--x/-x-x-x-x-x\x-x-x-x-2-222---7-----| 
|--7/9--9--9--9/-7-7-7-7-7\5-5-5-5-0-000-5----5--| 
|------------------------------------------------| 

|---------| 
|---------| 
|--9/r11--| 
|--x/rx---| 
|--7/r9---| 
|---------| 



OUTRO (Acoustic) 

|------------------------------------------------| 
|------------------------------------------------| x2 
|--9/11-11-11-11/9-9-9-9-9\7-7-7-7-2-222----7----| 
|--x/x--x--x--x/-x-x-x-x-x\x-x-x-x-2-222---7-----| 
|--7/9--9--9--9/-7-7-7-7-7\5-5-5-5-0-000-5----5--| 
|------------------------------------------------| 

|---------| 
|---------| 
|--9/r11--| 
|--x/rx---| 
|--7/r9---| 
|---------| 

[email protected] 

	  

Search Paypal
auto scroll beats size up size down change color hide chords drawings
tab show chords e-chords YouTube Clip e-chords hide all tabs e-chords go to top tab