Plus-44

home > Plus-44

Baby,come on Tab

Plus-44

Difficulty: BeginnerBeginner

by fboy

tuner correct add songbook print version text version save to e-mail
chordsukulelecavacokeyboardtabbassdrumsharmonicsflute Guitar Pro
chords

Baby,come on

  		Intro: Gtr. 1 (Feeble Dist. with some kind of Chorus) 
e|--2----------2------2--------------------| 
B|----3-5-0~-----3------3-5-0~-------------| 
G|-----------------2~----------------------| 
D|---------------------------------4~ -----| 
A|-----------------------------------------| 
E|-----------------------------------------| 


Verse: Gtr. 2 (Clean, almost acoustic sound)                                              
                    (X4) 
e|-----------------------------------------------------------------------------| 
B|-----------------------------------------------------------------------------| 
G|-----------------------------------------------------------------------------| 
D|-------4--------------7---------0---------0--------0--------2-0--------------| 
A|---5-5---5---(x3)-5-5----5--5-5----5--5-5---5--5-5---5--5-5------------------| 
E|-----------------------------------------------------------------------------| 

Verse 
Gtr. 2 
Start feedback 4 beats before Chorus (Note D) 

Chorus: 2 Heavily Distorted Guitars 

Gtr. 1 
e|------------------------------|-------------------------------------| 
B|------------------------------|-------------------------------------| 
G|--7---------------------------|-.--7--------------------------------| 
D|--7-(x4)-5------9------5------|----7-(x4)--5------------------------| 
A|--5------5 (x4)--9-(x4)--5-(x4)-|-.--5-------5-(x8)-----------------| 
E|---------3------7------3------|-----------3-------------------------| 

Chorus Gtr. 2 (Not Positive, but I hear it doing something) (x1) 
e|--2-------2-----2-------2----------------------------------------------------| 
B|----3-5-0---3-5---3-5-0---3333333333333333-----------------------------------| 
G|-----------------------------------------------------------------------------| 
D|-----------------------------------------------------------------------------| 
A|-----------------------------------------------------------------------------| 
E|-----------------------------------------------------------------------------| 

Post-Chorus 
Gtr. 2 
e|-----------------------------------------------------------------------------| 
B|-----------------------------------------------------------------------------| 
G|-----------------------------------------------------------------------------| 
D|------4-----5-----4------5-----4~----(x2)------------------------------------| 
A|--5-5---5-5---5-5---5-5---5-5------------------------------------------------| 
E|-----------------------------------------------------------------------------| 

Verse 2 

Verse: Gtr. 2 (Clean, almost acoustic sound)                                              
                    (X4) 
e|-----------------------------------------------------------------------------| 
B|-----------------------------------------------------------------------------| 
G|-----------------------------------------------------------------------------| 
D|-------4--------------7---------0---------0--------0--------2-0--------------| 
A|---5-5---5---(x3)-5-5----5--5-5----5--5-5---5--5-5---5--5-5------------------| 
E|-----------------------------------------------------------------------------| 

Gtr. 1 
e|---------------------------------------------------------------------------------| 
B|---------------------------------------------------------------------------------| 
G|---------------------------------------------------------------------------------| 
D|-5*-5*-5*-5*-5*-5*-5*-5*-- (Harmonics)-------------------------------------------| 
A|-5*-5*-5*-5*-5*-5*-5*-5*---(X28, Or Until Chorus)--------------------------------| 
E|---------------------------------------------------------------------------------| 

Gtr. 3 
e|-------------------------------------------------------------------------------| 
B|-------------------------------------------------------------------------------| 
G|--7------6----------------(X2)--7~--6~----7------6-----------------------------| 
D|--x-(x8)--x-(x8)-----------------7~--7~----x-(x8)--x-(x8)----------------------| 
A|--5------4--------5-(x16)-----------------5------4--------5-(x16)--------------| 
E|------------------3---------------------------------------3--------------------| 


Chorus: 2 Heavily Distorted Guitars 

Gtr. 1 
e|------------------------------|-------------------------------------| 
B|------------------------------|-------------------------------------| 
G|--7---------------------------|-.--7--------------------------------| 
D|--7-(x4)-5------9------5------|----7-(x4)--5------------------------| 
A|--5------5 (x4)--9-(x4)--5-(x4)-|-.--5-------5-(x8)-----------------| 
E|---------3------7------3------|-----------3-------------------------| 

Chorus Gtr. 2 (Not Positive, but I hear it doing something) (x1) 
e|--2-------2-----2-------2----------------------------------------------------| 
B|----3-5-0---3-5---3-5-0---3333333333333333-----------------------------------| 
G|-----------------------------------------------------------------------------| 
D|-----------------------------------------------------------------------------| 
A|-----------------------------------------------------------------------------| 
E|-----------------------------------------------------------------------------| 

Bridge 
gtr. 1 
e|-------------------------------------| 
B|-------------------------------------| 
G|--7------6---------------------------|   (X4) 
D|--7-(x8)--7-(x8)---5-----------------| 
A|--5------4--------5-(x16)------------| 
E|------------------3------------------| 

Gtr. 2 
e|---------------------------------------------------| 
B|---------------------------------------------------| 
G|--7~--7-7-7--6~--6-6-6--7~--11-11-11-9~-9-9-9------|    (X4) 
D|--x---x-x-x--x---x-x-x--x----x--x--x---x-x-x-x-----| 
A|--5~--5-5-5--4~--4-4-4--9~--9--9--9--7~-7-7-7------| 
E|---------------------------------------------------| 

Chorus: 2 Heavily Distorted Guitars 

Gtr. 1 
e|------------------------------|---------------------------------------| 
B|------------------------------|---------------------------------------|      (X2) 
G|--7---------------------------|-.--7----------------------------------| 
D|--7-(x4)-5------9------5------|----7-(x4)--5--------------------------| 
A|--5------5 (x4)--9-(x4)--5-(x4)-|-.--5-------5-(x8)-------------------| 
E|---------3------7------3------|-----------3---------------------------| 

Chorus Gtr. 2 (Not Positive, but I hear it doing something) (x1) 
e|--2-------2-----2-------2-----------------------------------------| 
B|----3-5-0---3-5---3-5-0---3333333333333333------------------------|    (X2) 
G|------------------------------------------------------------------| 
D|------------------------------------------------------------------| 
A|------------------------------------------------------------------| 
E|------------------------------------------------------------------| 

Final Chord (All Chorus guitars) 

e|--------| 
B|--------| 
G|-7~-----| 
D|-7~-----| 
A|-5~-----| 
E|--------| 


[email protected] =PPPPPP  

	  

Full key step upFull key step up
Half key step upHalf key step up
Half key step downHalf key step down
Full key step downFull key step down
Search Paypal
auto scroll beats size up size down change color hide chords drawings
tab show chords e-chords YouTube Clip e-chords hide all tabs e-chords go to top tab