Platon Karataev

Dandelion Dress

Platon Karataev

tabs

by  CARLLUZ

save to print version add songbook text version e-mail correct tuner
chordsukulelecavacokeyboardtabbassdrumsharmonicaflute Guitar Pro
close

there isn't a video lesson for this song

chords

Dandelion Dress

	  		
Intro/verse 3x 
e|-----------------------------------------------------------------------------------------------------| 
B|-----------------------------------------------------------------------------------------------------| 
G|--------0---------0--------2--------0---------------------------------------------0--------0---------| 
D|-----0---------0--------0--------0-----------2--------2---------2--------0-----0--------0------------| 
A|------------------------------------------2--------2---------2--------2------------------------------| 
E|--3---------3--------2--------2--------0--------0---------0--------0--------3--------3---------------| 
 I remember when      I        was the  wind                             and blue     away your 

e|-----------------------------------------------------------------------------------------------------| 
B|--------------------------------------------------------------------------------0--------------------| 
G|--------2--------0--------0--------0--------0--------0--------0--------0-----2-----------0-----------| 
D|-----0--------0--------0--------0--------0--------0--------0--------0-----------------0--------------| 
A|--------------------------------------------------------------------------0--------------------------| 
E|--2--------2--------3--------3--------3--------3--------3--------3-----------------2-----------------| 
  dandelion          dress                               the Sun laughed  at your   angel 

e|-----------------------------------------------------------------------------------------------------------| 
B|-----------------------------------------------------------------------------------------------------------| 
G|--------------------------------------------0--------0--------2--------2--------4--------4--------4------4-| 
D|--------2--------2--------2--------0-----0--------0--------0--------0--------0--------0--------0------0----| 
A|-----2--------2--------2--------2--------------------------------------------------------------------------| 
E|--0--------0--------0--------0--------3--------3--------2--------2--------3--------3--------3------3-------| 
   wings                           and I        touched your brown curly   tress 

e|---------------------------------------------------------------------------| 
B|--------------------------0------------------------------------------------| 
G|--------0--------0-----2-----------0--------0--------0--------0--------0---| 
D|-----0--------0-----------------0--------0--------0--------0--------0------| 
A|--------------------0------------------------------------------------------| 
E|--3--------3-----------------2--------3--------3--------3--------3---------| 
   that was pure     happiness      I guess 

Bridge 
e|-----------------------------------------------------------------------------------------------------| 
B|-----------------------------------------------------------------------------------------------------| 
G|--------0---------0--------2--------0---------------------------------------------0--------0---------| 
D|-----0---------0--------0--------0-----------2--------2---------2--------0-----0--------0------------| 
A|------------------------------------------2--------2---------2--------2------------------------------| 
E|--3---------3--------2--------2--------0--------0---------0--------0--------3--------3---------------| 

e|-------------------------------------------------------| 
B|--------0----------------------------------------------| 
G|-----2---------0--------0--------0--------0--------0---| 
D|------------0--------0--------0--------0--------0------| 
A|--0----------------------------------------------------| 
E|---------2--------3--------3--------3--------3---------| 

Second part, 3rd verse 
e|-----------------------------------------------------------------------------------------------------------| 
B|-----------------0-----------------0-----------------0-----------------0-----------------0---------------0-| 
G|--------0-----0-----------2-----2-----------0-----0-----------0-----0-----------0-----0----------0----2----| 
D|-----0-----------------0-----------------2-----------------2-----------------0----------------0------------| 
A|-----------2-----------------0-----------------2-----------------2-----------------2----------------0------| 
E|--3-----------------2-----------------0-----------------0-----------------3-----------------2--------------| 
   Everything                      was ours                       our     fragile           mind     were 

e|-----------------------------------------------------------------------------------------------------------| 
B|-----------------0-----------------0-----------------0-----------------0-----------------0---------------0-| 
G|--------0-----0-----------0-----0-----------0-----0-----------2-----2-----------0-----0---------0-----0----| 
D|-----0-----------------0-----------------0-----------------0-----------------2---------------2-------------| 
A|-----------2-----------------2-----------------2-----------------0-----------------2---------------2-------| 
E|--3-----------------3-----------------3-----------------2-----------------0----------------0---------------| 
   in       trance                     I told      her   how I             love her 

e|-----------------------------------------------------------------------------------------------------------| 
B|-----------------0-----------------0-----------------0-----------------0-----------------0---------------0-| 
G|--------0-----0-----------2-----2-----------0-----0-----------0-----0-----------0-----0---------2-----2----| 
D|-----0-----------------0-----------------2-----------------2-----------------0---------------0-------------| 
A|-----------2-----------------0-----------------2-----------------2-----------------2---------------0-------| 
E|--3-----------------2-----------------0-----------------0-----------------3---------------2----------------| 
  In god's           orchard        we danced                           Barefoot             between       the 

e|------------------------------------------| 
B|-----------------0------------------0-----| 
G|--------0-----0-----------0------0--------| 
D|-----0-----------------0------------------| 
A|-----------2------------------2-----------| 
E|--3-----------------3---------------------| 
   flowers 
		  

See also:

tabs Deep Purple - Money Talks tabs Deep Purple - Ted The Mechanic tabs Ira! - Inundação de Amor tabs Deep Purple - Highway Star tabs Doa - Sexyest Girl tabs Ira! - A vida por um fio
e-chords

Other versions:

tabs Platon Karataev - Dandelion Dress
auto scroll beats size up size down change color hide chords drawings
tab show chords e-chords YouTube Clip e-chords hide all tabs e-chords go to top tab

share