Planet Hemp

Phunky Buddha

Planet Hemp

tabs Intermediate intermediate

save to print version add songbook text version e-mail correct tuner
chordsukulelecavacokeyboardtabbassdrumsharmonicaflute Guitar Pro
close

there isn't a video lesson for this song

chords

Phunky Buddha

	  		 
Solo Intro: 
E|--------------------0---|--------------------------0--|-----0-----0-----0------0--| 
B|-5--3---------------0---|------3----------------0--0--|-----0-----0-----0------0--| 
G|-------4------------1---|--2/4---4------6---0h1----1--|-0h1---0h1---0h1---0h1-----| 
D|----------7b8b7--5--2---|-----------5/7---7--------2--|---------------------------| 
A|--------------------2---|--------------------------2--|---------------------------| 
E|--------------------0---|--------------------------0--|---------------------------| 
                                                              Chapado de maconha... 
Intro/Riff Principal: 
 
E|----------------------| 
B|----------------------| 
G|----------------------| 
D|--7--------7----------| 
A|--5-8-7----5-8-7-5----| 
E|----6-5------6-5-3----| 
 
Intro: Solo - Riff 
 
(Efeito Guitarra) 
Eu sei o que faço e não me embaraço 
Se me deixar falar eu vou causar um estardalhaço 
Acabo de chegar e tenho muito pra falar 
Tem muita coisa errada,temos que reclamar 
Sou cidadão do mundo e carioca com orgulho 
É o novo estilo carioca invadindo o mundo 
Planet hemp chegou pra detonar 
Poesia urbana é o que fazemos 
Vocês vão ter que me aturar 
Romper as barreiras do meu cérebro é o que eu quero 
Penso em mim por mim mesmo eu sou sincero 
Planet hemp vai fazer acontecer 
Se informe antes de falar pra não se fuder 
Reveja os seus valores antes de me criticar 
Uma erva natural não pode me prejudicar 
 
(Riff) 
Planet Hemp phunky buddha 4x 
 
(Efeito Guitarra) 
Tabaco ou maconha pergunte ao médico qual faz mal 
E então pergunte ao deputado porque é ilegal 
Não faço apologia às drogas e nem quero fazer 
Faça o que você quer e o que te dá prazer 
E os que te censuram você manda se fuder 
Todos tem o direito de pensar e acontecer 
Não seja escravo de si mesmo, seja você 
Muitos não vão gostar, outros vão criticar 
Mas eu faço o que eu quero 
Eu não vou te prejudicar 
 
(Riff) 
Planet Hemp phunky buddha 4x 
 
(Efeito Guitarra) 
Sinta os efeitos que fazem a minha cabeça 
Fumar um baseado e tomar uma cerveja 
Eu sou fora da lei por fumar uma erva 
Mas ninguém nunca me perguntou se isso me interessa 
Velhos impõe leis antes mesmo d'eu nascer 
E será que eu sou obrigado a obedecer 
Falam sem se informar que ela faz mal 
Mas está mais que provado que o efeito é natural 
Este é o Planet Hemp tentando te alertar 
Que uma erva natural não pode te prejudicar 
 
(Riff) 
Planet Hemp phunky buddha 3x 
Planet Hemp chapado de maconha 

		  

See also:

tabs Projota - Hey Irmão tabs O Rappa - Linha Vermelha tabs Planet Hemp - Procedência C.D tabs Dj Alpiste - Eu Vejo Uma Luz tabs Racionais Mc's - Fim de semana no parque tabs Planet Hemp - Stab
e-chords

Other versions:

tabs Planet Hemp - Phunky Buddha
auto scroll beats size up size down change color hide chords drawings
tab show chords e-chords YouTube Clip e-chords hide all tabs e-chords go to top tab

share