Placebo

the biter end Tab

Placebo

Difficulty: ExpertExpert

by maraquero

tuner correct add songbook print version text version save to e-mail
chordsukulelecavacokeyboardtabbassdrumsharmonicsflute Guitar Pro
close

there isn't a video lesson for this song

request
chords

the biter end

  		Intro:  
 
E|--------------| 
B|---7----7-7---| 
G|---8----8-8---| 
D|---8----8-8---| 
A|--------------| 
D|--------------| 
 
 
Verse: 
 
E|---x----x-x---4------------------------------------| 
B|---7----7-7---T------------------------------------| 
G|---8----8-8---I------------------------------------| 
D|---8----8-8---M---11-11-11-11-11-11-11-11----------| 
A|---9----9-9---E----9--9--9--9--9--9--9--9----------| 
D|---x----x-x---S----9--9--9--9--9--9--9--9----------| 
 
E|---------------------------------------------------| 
B|---------------------------------------------------| 
G|---------------------------------------------------| 
D|---9-9-9-9-9-9-9-9---9--9--9--9--9--9--9--9--------| 
A|---9-9-9-9-9-9-9-9---14-14-14-14-14-14-14-14-------| 
D|---9-9-9-9-9-9-9-9---9--9--9--9--9--9--9--9--------| 
 
E|---------------------------------------------------| 
B|---------------------------------------------------| 
G|---------------------------------------------------| 
D|---9--9--9--9--9--9--9--9--------------------------| 
A|---11-11-11-11-11-11-11-11-------------------------| 
D|---9--9--9--9--9--9--9--9--------------------------| 
 
 
Chorus: 
 
E|---------------------------------------------------| 
B|---------------------------------------------------| 
G|-11-11-11-11-11-11-11-11---10-10-10-10-10-10-10-10-| 
D|--x--x--x--x--x--x--x--x----x--x--x--x--x--x--x--x-| 
A|--9--9--9--9--9--9--9--9----8--8--8--8--8--8--8--8-| 
D|---------------------------------------------------| 
| 
E|---------------------------------------------------| 
B|---------------------------------------------------| 
G|--8-8-8-8-8-8-8-8---6-6-6-6-6-6-6-6---18-18-18-18--| 
D|--x-x-x-x-x-x-x-x---x-x-x-x-x-x-x-x----x--x--x--x--| 
A|--6-6-6-6-6-6-6-6---4-4-4-4-4-4-4-4---16-16-16-16--| 
D|---------------------------------------------------| 
 
E|---------------------------------------------------| 
B|---------------------------------------------------| 
G|---18-18-18-18---16-16-16-16-16-16-16-16---15-15---| 
D|----x--x--x--x----x--x--x--x--x--x--x--x----x--x---| 
A|---16-16-16-16---14-14-14-14-14-14-14-14---13-13---| 
D|---------------------------------------------------| 
 
E|---------------------------------------------------| 
B|---------------------------------------------------| 
G|---15-15-15-15-15-15---13-13-13-13-13-13-13-13-----| 
D|----x--x--x--x--x--x----x--x--x--x--x--x--x--x-----| 
A|---13-13-13-13-13-13---11-11-11-11-11-11-11-11-----| 
D|---------------------------------------------------| 

	  

Search Paypal
auto scroll beats size up size down change color hide chords drawings
tab show chords e-chords YouTube Clip e-chords hide all tabs e-chords go to top tab

share with facebook