Placebo

home > Placebo

Every You, Every Me Tab

Placebo

Difficulty: nolevelnolevel

by lazygirl

tuner correct add songbook print version text version save to e-mail
chordsukulelecavacokeyboardtabbassdrumsharmonicsflute Guitar Pro
chords

Every You, Every Me

Year: 1998 - Album: Extended Play '07

  		This tab is what i used when our band played this song and  
    in my opinion is better than any others on here. 
  v= down pick 
  u= up pick 
 BU= Bend up 
      Verse 
          v v v v v v v vu v v v v v v v 
  e ------------------------------------ 
  B ------------------------------------ 
  G ------7-7-7-7-7-7-7-77-------------- 
  D ------7-7-7-7-7-7-7-77-5-5-5-5-8-8-8 
  A ------5-5-5-5-5-5-5-55-5-5-5-5-7-7-7 
  E -----------------------6-6-6-6-8-8-8  
  \"Sucker love is heaven sent\" 
    Chorus 
          v v v v v v v v v v v v v v v v v v v v v v v v v v v v v v v v 
  e --------------------------------------------------------------------- 
  B --------------------------------------------------------------------- 
  G --------------------------------------7-7-7-7-7-7-7-7-7-7-7-7-7-7-7-7     
  D ------8-8-8-8-8-8-8-8-8-8-8-8-8-8-8-8-7-7-7-7-7-7-7-7-7-7-7-7-7-7-7-7 
  A ------8-8-8-8-8-8-8-8-8-8-8-8-8-8-8-8-5-5-5-5-5-5-5-5-5-5-5-5-5-5-5-5 
  E ------6-6-6-6-6-6-6-6-6-6-6-6-6-6-6-6-------------------------------- 
          v v v v v v v v v v v v v v v v v v v v v v v v v v v v v v v v  
  e --------------------------------------------------------------------- 
  B --------------------------------------------------------------------- 
  G ------------------------------------------------------2-2-2-2-2-2-2-2 
  D ------8-8-8-8-8-8-8-8-8-8-8-8-8-8-8-8-3-3-3-3-3-3-3-3-2-2-2-2-2-2-2-2 
  A ------8-8-8-8-8-8-8-8-8-8-8-8-8-8-8-8-3-3-3-3-3-3-3-3-0-0-0-0-0-0-0-0 
  E ------6-6-6-6-6-6-6-6-6-6-6-6-6-6-6-6-1-1-1-1-1-1-1-1---------------- 
   
  after second chorus do this  
    v v v v v v v v v v v v v v v v 
  e---------------------------------------------------------------- 
  B---------------------------------------------------------------- 
  G-3-3-3-3-3-3-3-3-3-3-3-3-3-3-3-3-----------------2-2-2-2-2-2-2-2 
  D-3-3-3-3-3-3-3-3-3-3-3-3-3-3-3-3-3-3-3-3-3-3-3-3-2-2-2-2-2-2-2-2 
  A-1-1-1-1-1-1-1-1-1-1-1-1-1-1-1-1-3-3-3-3-3-3-3-3-0-0-0-0-0-0-0-0 
  E---------------------------------1-1-1-1-1-1-1-1---------------- 
  and then ad one of them onto every chorus after  
  e.g 3rd chorus do i twice..... then on the last chorus repeat loads of times  
  (think its about 7 but just listen to the record) 
   
   There is a verse with no chords (just bass) but i ad this in instead of  
   what ever placebo use 
                       BU let ring  
   e--------------------------- 
   B--------------------------- 
   G--------------------9(BU 11)  
   D--------------------------- 
   A--------------------------- 
   E--------------------------- 
 
   [email protected] 
	  

Search Paypal
auto scroll beats size up size down change color hide chords drawings
tab show chords e-chords YouTube Clip e-chords hide all tabs e-chords go to top tab