Pixies

Where Is My Mind

Pixies

tabs Beginner beginner

save to print version add songbook text version e-mail correct tuner
chordsukulelecavacokeyboardtabbassdrumsharmonicaflute Guitar Pro
close

there isn't a video lesson for this song

chords

Where Is My Mind

Year: 1988 - Album: Surfer Rosa

	  		 
Guitarra 
 
Introdução: 
Guitarra 1: 
E C#m Abm A (x2 sozinho; x2 com guitarra 2) 
 
Guitarra 2: 
B|----9---9---9---9---9---9-----------| x 
G|--9---9---9---9---8---8---9--9p8h9--| 2 
 
B|----9---9---9---9---9---9-----------| x 
G|--9---9---9---9---8---8---9--9p8h9--| 3 

          E                        C#m                 Abm  A 
With your feet in the air and your head on the ground 
E                C#m   Abm        A 
   Try this trick and spin it   Yeah, 
E                    C#m              Abm 
  Your head will collapse but there's nothing in it 
           A 
And you'll ask yourself 
 
Refrão: 
E           C#m 
Where is my mind? 
Abm                 A 
   Where is my mind? 
E           C#m   Abm  A   E  C#m  Abm  A 
Where is my mind? 
E   Abm        A            Am         C#        B 
Way out in the water see it swimmin' 
 
B|----9---9---9---9---9---9-----------| x 
G|--9---9---9---9---8---8---9--9p8h9--| 3 
E             C#m            Abm      A 
I was swimmin' in the Carribean 
E              C#m    Abm          A 
  Animals were hiding behind the rock 
E                    C#m            Abm                              A 
  Except the little fish but they told me, he swears tryin' to talk to me to me to me 
 
Refrão 
 
Solo: 
    Guitarra 1: 
E||--------------------------------------------| 
B||--9b--r-9b--r-------------------------810--| 
G||--9b--r-9b--r--9b--9r-9-9-7----7---9--------| 
D||----------------------------9---------------| 
A||--------------------------------------------| 
E||--------------------------------------------| 
 || Guitarra 2:                                | 
E||--------------------------------------------| 
B||--7-----7-----------------------------------| 
G||--9b--r-9b--r--9b--9r-9-9-7-7----7--9--7----| 
D||------------------------------9-----------9-| 
A||--------------------------------------------| 
E||--------------------------------------------| 
 
    Guitarra 1: 
E||--------10-12-12-12b-r-13b--r-13b--r-13b--r-----| 
B||-10-12------------------------------------------| 
G||------------------------------------------------| 
D||------------------------------------------------| 
A||------------------------------------------------| 
E||------------------------------------------------| 
 || Guitarra 2:                                    | 
E||-------------10---12b--r-12b--r-12b--r-12b--r---| 
B||-----7-10-12------------------------------------| 
G||-7-9--------------------------------------------| 
D||------------------------------------------------| 
A||------------------------------------------------| 
E||------------------------------------------------| 
 
Repete: 1ª Estrofe 
 
Refrão 
 
Guitarra 1: E C#m Abm A 
 
Guitarra 2: 
B|----9---9---9---9---9---9-----------| 
G|--9---9---9---9---8---8---9--9p8h9--| 
 
B|----9---9---9---9---9---9-----------| x 
G|--9---9---9---9---8---8---9--9p8h9--| 2 
          E                        C#m                 Abm  A 
With your feet in the air and your head on the ground 
E                C#m   Abm        A 
   Try this trick and spin it   Yeah 
 
Guitarra 1: E C#m Abm A (x4) 
 
Guitarra 2: 
B|----9---9---9---9---9---9-----------| x 
G|--9---9---9---9---8---8---9--9p8h9--| 4 
 
Baixo 
 
  
Riff principal 
G|---------------------------------| 
D|---------------------------------| 
A|---------4-4-4-4---------0-0-0-0-| 
E|-0-0-0-0---------4-4-4-4---------| 
Introdução: 2x; entra com a Guitarra 2 
Versos: 1 vez a cada repetição dos riffs 
Refrão 1: 3x; na repetição dos riffs 
Outras partes: sempre acompanha ?E C#m Abm A? 
 
Riff 1 
G|-------------------------------------| 
D|-------------------------------------| 
A|-------------------------------------| 
E|-0-0-0-0-0-4-4-4-4-4-5-5-5-5-5-5-5-5-| 
Toca na última frase do Refrão (?Way out in...?), acompanhando os acordes das Guitarras. 
 
Interlúdio / Solo 
G|---------------------------------| 
D|---------------------------------| 
A|---------------------------------| 
E|-4-----2-2-2-2-2-2-2-2-2-2-2-2-2-| 
Interlúdio: Acompanha as guitarras quando o Refrão acaba. 
Solo: 3x 
 
_______________________________________________________ 
Contribuição: Eric Henrique de Souza([email protected]) 
		  

Full key step upFull key step up
Half key step upHalf key step up
Half key step downHalf key step down
Full key step downFull key step down
hide glossary

See also:

tabs Wheatus - Teenage Dirtbag tabs James Blunt - Wisemen tabs Candlebox - Far behind tabs Slash Snakepit - Godfather Theme tabs Hoobastank - Disappear tabs Iron Butterfly - IronButterfly-in A Gadda Da Vida
e-chords

Other versions:

tabs Pixies - Where Is My Mind
auto scroll beats size up size down change color hide chords drawings
tab show chords e-chords YouTube Clip e-chords hide all tabs e-chords go to top tab

share