Pixies

Into The White

Pixies

tabs

by  ANDRSOUZA

save to print version add songbook text version e-mail correct tuner
chordsukulelecavacokeyboardtabbassdrumsharmonicaflute Guitar Pro
close

there isn't a video lesson for this song

chords

Into The White

	  		

Acoustic guitar (but into white...) 

e|0-0-0-0-0-0-0-0--0-0-0-0-0-0-0-0--1-1-1-1-1-1-1-1--0-0-0-0-0-0-0-0------------| 
B|0-0-0-0-0-0-0-0--2-2-2-2-2-2-2-2--3-3-3-3-3-3-3-3--2-2-2-2-2-2-2-2------------| 
G|1-1-1-1-1-1-1-1--2-2-2-2-2-2-2-2--3-3-3-3-3-3-3-3--2-2-2-2-2-2-2-2------------| 
D|2-2-2-2-2-2-2-2--2-2-2-2-2-2-2-2--3-3-3-3-3-3-3-3--2-2-2-2-2-2-2-2------------| 
A|2-2-2-2-2-2-2-2--0-0-0-0-0-0-0-0--1-1-1-1-1-1-1-1--0-0-0-0-0-0-0-0------------| 
E|0-0-0-0-0-0-0-0--0-0-0-0-0-0-0-0--1-1-1-1-1-1-1-1--0-0-0-0-0-0-0-0------------|x2 




Distortion guitar (and there ain't no day...) 

e|0-0-0-0-0-0-0-0--0-0-0-0-0-0-0-0--1-1-1-1-1-1-1-1--0-0-0-0-0-0-0-0------------| 
B|0-0-0-0-0-0-0-0--2-2-2-2-2-2-2-2--3-3-3-3-3-3-3-3--2-2-2-2-2-2-2-2------------| 
G|1-1-1-1-1-1-1-1--2-2-2-2-2-2-2-2--3-3-3-3-3-3-3-3--2-2-2-2-2-2-2-2------------| 
D|2-2-2-2-2-2-2-2--2-2-2-2-2-2-2-2--3-3-3-3-3-3-3-3--2-2-2-2-2-2-2-2------------| 
A|2-2-2-2-2-2-2-2--0-0-0-0-0-0-0-0--1-1-1-1-1-1-1-1--0-0-0-0-0-0-0-0------------| 
E|0-0-0-0-0-0-0-0--0-0-0-0-0-0-0-0--1-1-1-1-1-1-1-1--0-0-0-0-0-0-0-0------------|x3 




Distortion guitar (into the white...) 

e|0-----0----0/5------------------6-----6----6\5-----------------------------| 
B|0-----0----0/5------------------6-----6----6\5-----------------------------| 
G|1-----1----1/6------------------7-----7----7\6-----------------------------| 
D|2-----2----2/7------------------8-----8----8\7-----------------------------| 
A|2-----2----2/7------------------8-----8----8\7-----------------------------| 
E|---------------------------------------------------------------------------|x2 

Acoustic guitar 

e|0-0-0-0-0-0-0-0--0-0-0-0-0-0-0-0--1-1-1-1-1-1-1-1--0-0-0-0-0-0-0-0---------| 
B|0-0-0-0-0-0-0-0--2-2-2-2-2-2-2-2--3-3-3-3-3-3-3-3--2-2-2-2-2-2-2-2---------| 
G|1-1-1-1-1-1-1-1--2-2-2-2-2-2-2-2--3-3-3-3-3-3-3-3--2-2-2-2-2-2-2-2---------| 
D|2-2-2-2-2-2-2-2--2-2-2-2-2-2-2-2--3-3-3-3-3-3-3-3--2-2-2-2-2-2-2-2---------| 
A|2-2-2-2-2-2-2-2--0-0-0-0-0-0-0-0--1-1-1-1-1-1-1-1--0-0-0-0-0-0-0-0---------| 
E|0-0-0-0-0-0-0-0--0-0-0-0-0-0-0-0--1-1-1-1-1-1-1-1--0-0-0-0-0-0-0-0---------|x2 




Distortion guitar 

e|0-----0----0/5------------------6-----6----6\5---6-----6----6\5------------| 
B|0-----0----0/5------------------6-----6----6\5---6-----6----6\5------------| 
G|1-----1----1/6------------------7-----7----7\6---7-----7----7\6------------| 
D|2-----2----2/7------------------8-----8----8\7---8-----8----8\7------------| 
A|2-----2----2/7------------------8-----8----8\7---8-----8----8\7------------| 
E|---------------------------------------------------------------------------| 

Acoustic guitar 

e|0-0-0-0-0-0-0-0--0-0-0-0-0-0-0-0--1-1-1-1-1-1-1-1--0-0-0-0-0-0-0-0---------| 
B|0-0-0-0-0-0-0-0--2-2-2-2-2-2-2-2--3-3-3-3-3-3-3-3--2-2-2-2-2-2-2-2---------| 
G|1-1-1-1-1-1-1-1--2-2-2-2-2-2-2-2--3-3-3-3-3-3-3-3--2-2-2-2-2-2-2-2---------| 
D|2-2-2-2-2-2-2-2--2-2-2-2-2-2-2-2--3-3-3-3-3-3-3-3--2-2-2-2-2-2-2-2---------| 
A|2-2-2-2-2-2-2-2--0-0-0-0-0-0-0-0--1-1-1-1-1-1-1-1--0-0-0-0-0-0-0-0---------| 
E|0-0-0-0-0-0-0-0--0-0-0-0-0-0-0-0--1-1-1-1-1-1-1-1--0-0-0-0-0-0-0-0---------| 




Distortion guitar (Did you hear what I said?...) 

e|0-0-0-0-0-0-0-0--0-0-0-0-0-0-0-0--1-1-1-1-1-1-1-1--0-0-0-0-0-0-0-0------------| 
B|0-0-0-0-0-0-0-0--2-2-2-2-2-2-2-2--3-3-3-3-3-3-3-3--2-2-2-2-2-2-2-2------------| 
G|1-1-1-1-1-1-1-1--2-2-2-2-2-2-2-2--3-3-3-3-3-3-3-3--2-2-2-2-2-2-2-2------------| 
D|2-2-2-2-2-2-2-2--2-2-2-2-2-2-2-2--3-3-3-3-3-3-3-3--2-2-2-2-2-2-2-2------------| 
A|2-2-2-2-2-2-2-2--0-0-0-0-0-0-0-0--1-1-1-1-1-1-1-1--0-0-0-0-0-0-0-0------------| 
E|0-0-0-0-0-0-0-0--0-0-0-0-0-0-0-0--1-1-1-1-1-1-1-1--0-0-0-0-0-0-0-0------------| 




Distortion guitar (Deeper than your sleepy head...) 

e|0-0-0-0-0-0-0-0--0-0-0-0-0-0-0-0--1-1-1-1-1-1-1-1--0-0-0-0-0-0-0-0------------| 
B|0-0-0-0-0-0-0-0--2-2-2-2-2-2-2-2--1-1-1-1-1-1-1-1--0-0-0-0-0-0-0-0------------| 
G|1-1-1-1-1-1-1-1--2-2-2-2-2-2-2-2--2-2-2-2-2-2-2-2--1-1-1-1-1-1-1-1------------| 
D|2-2-2-2-2-2-2-2--2-2-2-2-2-2-2-2--3-3-3-3-3-3-3-3--2-2-2-2-2-2-2-2------------| 
A|2-2-2-2-2-2-2-2--0-0-0-0-0-0-0-0--3-3-3-3-3-3-3-3--2-2-2-2-2-2-2-2------------| 
E|0-0-0-0-0-0-0-0--0-0-0-0-0-0-0-0--1-1-1-1-1-1-1-1--0-0-0-0-0-0-0-0------------| 




Distortion guitar (Ain't nothing to see...) 

e|0-0-0-0-0-0-0-0--0-0-0-0-0-0-0-0--1-1-1-1-1-1-1-1--0-0-0-0-0-0-0-0------------| 
B|0-0-0-0-0-0-0-0--2-2-2-2-2-2-2-2--3-3-3-3-3-3-3-3--2-2-2-2-2-2-2-2------------| 
G|1-1-1-1-1-1-1-1--2-2-2-2-2-2-2-2--3-3-3-3-3-3-3-3--2-2-2-2-2-2-2-2------------| 
D|2-2-2-2-2-2-2-2--2-2-2-2-2-2-2-2--3-3-3-3-3-3-3-3--2-2-2-2-2-2-2-2------------| 
A|2-2-2-2-2-2-2-2--0-0-0-0-0-0-0-0--1-1-1-1-1-1-1-1--0-0-0-0-0-0-0-0------------| 
E|0-0-0-0-0-0-0-0--0-0-0-0-0-0-0-0--1-1-1-1-1-1-1-1--0-0-0-0-0-0-0-0------------| 



Distortion guitar (into the white...) 

e|0-----0----0/5------------------6-----6----6\5-----------------------------| 
B|0-----0----0/5------------------6-----6----6\5-----------------------------| 
G|1-----1----1/6------------------7-----7----7\6-----------------------------| 
D|2-----2----2/7------------------8-----8----8\7-----------------------------| 
A|2-----2----2/7------------------8-----8----8\7-----------------------------| 
E|---------------------------------------------------------------------------|x2 

Acoustic guitar 

e|0-0-0-0-0-0-0-0--0-0-0-0-0-0-0-0--1-1-1-1-1-1-1-1--0-0-0-0-0-0-0-0---------| 
B|0-0-0-0-0-0-0-0--2-2-2-2-2-2-2-2--3-3-3-3-3-3-3-3--2-2-2-2-2-2-2-2---------| 
G|1-1-1-1-1-1-1-1--2-2-2-2-2-2-2-2--3-3-3-3-3-3-3-3--2-2-2-2-2-2-2-2---------| 
D|2-2-2-2-2-2-2-2--2-2-2-2-2-2-2-2--3-3-3-3-3-3-3-3--2-2-2-2-2-2-2-2---------| 
A|2-2-2-2-2-2-2-2--0-0-0-0-0-0-0-0--1-1-1-1-1-1-1-1--0-0-0-0-0-0-0-0---------| 
E|0-0-0-0-0-0-0-0--0-0-0-0-0-0-0-0--1-1-1-1-1-1-1-1--0-0-0-0-0-0-0-0---------|x2 




Distortion guitar 

e|0-----0----0/5------------------6-----6----6\5---6-----6----6\5------------| 
B|0-----0----0/5------------------6-----6----6\5---6-----6----6\5------------| 
G|1-----1----1/6------------------7-----7----7\6---7-----7----7\6------------| 
D|2-----2----2/7------------------8-----8----8\7---8-----8----8\7------------| 
A|2-----2----2/7------------------8-----8----8\7---8-----8----8\7------------| 
E|---------------------------------------------------------------------------| 

Acoustic guitar 

e|0-0-0-0-0-0-0-0--0-0-0-0-0-0-0-0--1-1-1-1-1-1-1-1--0-0-0-0-0-0-0-0---------| 
B|0-0-0-0-0-0-0-0--2-2-2-2-2-2-2-2--3-3-3-3-3-3-3-3--2-2-2-2-2-2-2-2---------| 
G|1-1-1-1-1-1-1-1--2-2-2-2-2-2-2-2--3-3-3-3-3-3-3-3--2-2-2-2-2-2-2-2---------| 
D|2-2-2-2-2-2-2-2--2-2-2-2-2-2-2-2--3-3-3-3-3-3-3-3--2-2-2-2-2-2-2-2---------| 
A|2-2-2-2-2-2-2-2--0-0-0-0-0-0-0-0--1-1-1-1-1-1-1-1--0-0-0-0-0-0-0-0---------| 
E|0-0-0-0-0-0-0-0--0-0-0-0-0-0-0-0--1-1-1-1-1-1-1-1--0-0-0-0-0-0-0-0---------| 




Distortion guitar (Go and you'll go real far...) 

e|0-0-0-0-0-0-0-0--0-0-0-0-0-0-0-0--1-1-1-1-1-1-1-1--0-0-0-0-0-0-0-0------------| 
B|0-0-0-0-0-0-0-0--2-2-2-2-2-2-2-2--3-3-3-3-3-3-3-3--2-2-2-2-2-2-2-2------------| 
G|1-1-1-1-1-1-1-1--2-2-2-2-2-2-2-2--3-3-3-3-3-3-3-3--2-2-2-2-2-2-2-2------------| 
D|2-2-2-2-2-2-2-2--2-2-2-2-2-2-2-2--3-3-3-3-3-3-3-3--2-2-2-2-2-2-2-2------------| 
A|2-2-2-2-2-2-2-2--0-0-0-0-0-0-0-0--1-1-1-1-1-1-1-1--0-0-0-0-0-0-0-0------------| 
E|0-0-0-0-0-0-0-0--0-0-0-0-0-0-0-0--1-1-1-1-1-1-1-1--0-0-0-0-0-0-0-0------------| 




Distortion guitar (Just past the big quasar...) 

e|0-0-0-0-0-0-0-0--0-0-0-0-0-0-0-0--1-1-1-1-1-1-1-1--0-0-0-0-0-0-0-0------------| 
B|0-0-0-0-0-0-0-0--2-2-2-2-2-2-2-2--1-1-1-1-1-1-1-1--0-0-0-0-0-0-0-0------------| 
G|1-1-1-1-1-1-1-1--2-2-2-2-2-2-2-2--2-2-2-2-2-2-2-2--1-1-1-1-1-1-1-1------------| 
D|2-2-2-2-2-2-2-2--2-2-2-2-2-2-2-2--3-3-3-3-3-3-3-3--2-2-2-2-2-2-2-2------------| 
A|2-2-2-2-2-2-2-2--0-0-0-0-0-0-0-0--3-3-3-3-3-3-3-3--2-2-2-2-2-2-2-2------------| 
E|0-0-0-0-0-0-0-0--0-0-0-0-0-0-0-0--1-1-1-1-1-1-1-1--0-0-0-0-0-0-0-0------------| 




Distortion guitar (Can't hitch a meteorite...) 

e|0-0-0-0-0-0-0-0--0-0-0-0-0-0-0-0--1-1-1-1-1-1-1-1--7-7-7-7-7-7-7-7------------| 
B|0-0-0-0-0-0-0-0--2-2-2-2-2-2-2-2--3-3-3-3-3-3-3-3--9-9-9-9-9-9-9-9------------| 
G|1-1-1-1-1-1-1-1--2-2-2-2-2-2-2-2--3-3-3-3-3-3-3-3--9-9-9-9-9-9-9-9------------| 
D|2-2-2-2-2-2-2-2--2-2-2-2-2-2-2-2--3-3-3-3-3-3-3-3--9-9-9-9-9-9-9-9------------| 
A|2-2-2-2-2-2-2-2--0-0-0-0-0-0-0-0--1-1-1-1-1-1-1-1--7-7-7-7-7-7-7-7------------| 
E|0-0-0-0-0-0-0-0--0-0-0-0-0-0-0-0--1-1-1-1-1-1-1-1--7-7-7-7-7-7-7-7------------| 




Distortion guitar (into the white...) 

e|0-----0----0/5------------------6-----6----6\5-----------------------------| 
B|0-----0----0/5------------------6-----6----6\5-----------------------------| 
G|1-----1----1/6------------------7-----7----7\6-----------------------------| 
D|2-----2----2/7------------------8-----8----8\7-----------------------------| 
A|2-----2----2/7------------------8-----8----8\7-----------------------------| 
E|---------------------------------------------------------------------------|x2 

Acoustic guitar 

e|0-0-0-0-0-0-0-0--0-0-0-0-0-0-0-0--1-1-1-1-1-1-1-1--0-0-0-0-0-0-0-0---------| 
B|0-0-0-0-0-0-0-0--2-2-2-2-2-2-2-2--3-3-3-3-3-3-3-3--2-2-2-2-2-2-2-2---------| 
G|1-1-1-1-1-1-1-1--2-2-2-2-2-2-2-2--3-3-3-3-3-3-3-3--2-2-2-2-2-2-2-2---------| 
D|2-2-2-2-2-2-2-2--2-2-2-2-2-2-2-2--3-3-3-3-3-3-3-3--2-2-2-2-2-2-2-2---------| 
A|2-2-2-2-2-2-2-2--0-0-0-0-0-0-0-0--1-1-1-1-1-1-1-1--0-0-0-0-0-0-0-0---------| 
E|0-0-0-0-0-0-0-0--0-0-0-0-0-0-0-0--1-1-1-1-1-1-1-1--0-0-0-0-0-0-0-0---------|x2 




Distortion guitar (into the white...) 

e|0-----0----0/5b--0-----0----0/5b--0-----0----0/5b--0-----0----0/5b---------| 
B|0-----0----0/5b--0-----0----0/5b--0-----0----0/5b--0-----0----0/5b---------| 
G|1-----1----1/6b--1-----1----1/6b--1-----1----1/6b--1-----1----1/6b---------| 
D|2-----2----2/7b--2-----2----2/7b--2-----2----2/7b--2-----2----2/7b---------| 
A|2-----2----2/7b--2-----2----2/7b--2-----2----2/7b--2-----2----2/7b---------| 
E|---------------------------------------------------------------------------| 

Acoustic guitar 

e|0-0-0-0-0-0-0-0--0-0-0-0-0-0-0-0--1-1-1-1-1-1-1-1--0-0-0-0-0-0-0-0---------| 
B|0-0-0-0-0-0-0-0--2-2-2-2-2-2-2-2--3-3-3-3-3-3-3-3--2-2-2-2-2-2-2-2---------| 
G|1-1-1-1-1-1-1-1--2-2-2-2-2-2-2-2--3-3-3-3-3-3-3-3--2-2-2-2-2-2-2-2---------| 
D|2-2-2-2-2-2-2-2--2-2-2-2-2-2-2-2--3-3-3-3-3-3-3-3--2-2-2-2-2-2-2-2---------| 
A|2-2-2-2-2-2-2-2--0-0-0-0-0-0-0-0--1-1-1-1-1-1-1-1--0-0-0-0-0-0-0-0---------| 
E|0-0-0-0-0-0-0-0--0-0-0-0-0-0-0-0--1-1-1-1-1-1-1-1--0-0-0-0-0-0-0-0---------| 




Distortion guitar (into the white...)x9 

e|0-0-0-0-0-0-0-0--4-4-4-4-4-4-4-4--5-5-5-5-5-5-5-5--7-7-7-7-7-7-7-7---------| 
B|0-0-0-0-0-0-0-0--4-4-4-4-4-4-4-4--5-5-5-5-5-5-5-5--7-7-7-7-7-7-7-7---------| 
G|1-1-1-1-1-1-1-1--5-5-5-5-5-5-5-5--6-6-6-6-6-6-6-6--8-8-8-8-8-8-8-8---------| 
D|2-2-2-2-2-2-2-2--6-6-6-6-6-6-6-6--7-7-7-7-7-7-7-7--9-9-9-9-9-9-9-9---------| 
A|2-2-2-2-2-2-2-2--6-6-6-6-6-6-6-6--7-7-7-7-7-7-7-7--9-9-9-9-9-9-9-9---------| 
E|0-0-0-0-0-0-0-0--4-4-4-4-4-4-4-4--5-5-5-5-5-5-5-5--7-7-7-7-7-7-7-7---------| 

e|6-6-6-6-6-6-6-6--6-6-6-6-6-6-6-6--5-5-5-5-5-5-5-5--5-5-5-5-5-5-5-5---------| 
B|6-6-6-6-6-6-6-6--6-6-6-6-6-6-6-6--5-5-5-5-5-5-5-5--5-5-5-5-5-5-5-5---------| 
G|7-7-7-7-7-7-7-7--7-7-7-7-7-7-7-7--6-6-6-6-6-6-6-6--6-6-6-6-6-6-6-6---------| 
D|8-8-8-8-8-8-8-8--8-8-8-8-8-8-8-8--7-7-7-7-7-7-7-7--7-7-7-7-7-7-7-7---------| 
A|8-8-8-8-8-8-8-8--8-8-8-8-8-8-8-8--7-7-7-7-7-7-7-7--7-7-7-7-7-7-7-7---------| 
E|6-6-6-6-6-6-6-6--6-6-6-6-6-6-6-6--5-5-5-5-5-5-5-5--5-5-5-5-5-5-5-5---------| 

************************************ 

| x   Dead note 
| g   Grace note 
| (n) Ghost note 
| h   Hammer-on 
| p   Pull-off 
| r   Release 
| >   Accented note 
| t   Tapping 
| b   Bend 
| br  Bend release 
| pb  Pre-bend 
| pbr Pre-bend release 
| /   Slide up 
| \   Slide down 
| ~   Vibrato 
| s   Slap 
| P   Pop 
| PM  Palm mute 
| TR  Trill 
| N   Tremolo 

************************************ 
		  

See also:

tabs James Blunt - Cry tabs Iron Butterfly - IronButterfly-in A Gadda Da Vida tabs Stone Sour - Through glass (ver. 2) tabs Candlebox - Far behind tabs Mudvayne - World so cold tabs James Blunt - Wisemen
e-chords

Other versions:

tabs Pixies - Into The White
auto scroll beats size up size down change color hide chords drawings
tab show chords e-chords YouTube Clip e-chords hide all tabs e-chords go to top tab

share