Pixies

I'm Amazed

Pixies

tabs

by  EMILBLASTER

save to print version add songbook text version e-mail correct tuner
chordsukulelecavacokeyboardtabbassdrumsharmonicaflute Guitar Pro
close

there isn't a video lesson for this song

chords

I'm Amazed

Year: 1988 - Album: Surfer Rosa

	  		I'M AMAZED 
 
-...girls and fucked 'em at school 
All I know is that  
There were rumours he was into field hockey players 
There were rumours 
-So he applied basically 
-He was gone the next day 
-And went off with the team 
-It's like - he was go-they just like 
It was so hush hush 
They were so... quiet about it 
And then the next thing you know... 
 
Intro bass: 
 
A-------------------------3-| 
E-3-3-3-3-2-2-2-2-0-0-0-0---| 
 
---------------------------3-| 
-----------------------------| 
-----0------0------0---------| 
-0-4----0-4----0-4----0-4----| 
-----------------------------| 
-----------------------------| 
 
Em 
The day before 
I was wed 
She went upstairs 
And then she cut her head away 
 
Em(7fret) 
I'm amazed  (4x) 
 
And when I was  
A little boy 
A ball of string 
Might get up to the rain  
 
 
Solo 
-----------7-----9-8---------7--------7---------------------------| 
-----8-------10------10--------10-------10--0-0-0-0-0-0-0-0-0-0-0-| 
-7-9---7-9---------------7-9------7-9-----------------------------| 
------------------------------------------------------------------| 
------------------------------------------------------------------| 
------------------------------------------------------------------| 
 
Before I died 
I took my Honda 
And cranked it up up up 
Too bad it don't have no brakes 
 
I'm amazed  (4x) 
		  

Full key step upFull key step up
Half key step upHalf key step up
Half key step downHalf key step down
Full key step downFull key step down
hide glossary

See also:

tabs James Blunt - Cry tabs Iron Butterfly - IronButterfly-in A Gadda Da Vida tabs Stone Sour - Through glass (ver. 2) tabs Candlebox - Far behind tabs Mudvayne - World so cold tabs James Blunt - Wisemen
e-chords

Other versions:

tabs Pixies - I'm Amazed tabs My Morning Jacket - I'm Amazed (solo)
auto scroll beats size up size down change color hide chords drawings
tab show chords e-chords YouTube Clip e-chords hide all tabs e-chords go to top tab

share