Pixies

Break My Body

Pixies

tabs

by  EMILBLASTER

save to print version add songbook text version e-mail correct tuner
chordsukulelecavacokeyboardtabbassdrumsharmonicaflute Guitar Pro
close

there isn't a video lesson for this song

chords

Break My Body

Year: 1988 - Album: Surfer Rosa

	  		Verse: 
G A#   avec un D parfois 
 
for the Chorus the rhythm plays : 
A     G  F    Bb      G     C       A 
break my body hold my bones hold my bones 
 
 
Lead guitar 
intro 
G                           A# 
---------------------------------- 
---------------------------------- 
--9-9-9-9-9-9-9-9-9-9-9-9-9-10-10- 
---------------------------------- 
---------------------------------- 
---------------------------------- 
 
G                            A# 
----------------------------12-12-12-12- 
---------------------------------------- 
--9-9-9-9-9-9-9-9-9-9-9-9-9------------- 
---------------------------------------- 
---------------------------------------- 
---------------------------------------- 
 
play above at end of verses 
-12--10---------- 
-10--10---------- 
----------------- 
----------------- 
----------------- 
----------------- 
 
play above pattern through Chorus and then 
 
--13-12-10------------------------ 
------------13-12-10-------------- 
---------------------------------- 
---------------------------------- 
---------------------------------- 
---------------------------------- 
 
 
--13-12-10------------------------ 
------------13-12-10/9/8/7/6/5-5-5 
---------------------------------- 
---------------------------------- 
---------------------------------- 
---------------------------------- 
 
then play note on 5th fret in similar 
way to the pattern on the 8th fret. 
 
 
At the end of the song play 
 
B   D   D#  x 2 
 
B   D   D#  B 
 
 
Lyrics : 
 
I'm a hard loser 
You'll find me crashing through my mother's door 
I am the ugly lover 
You'll find us crawling on the dirty floor 
 
Break my body, hold my bones, hold my bones   x 3 
 
I'm a belly dancer 
I'll shake forever and I'll never care 
I'm a building jumper 
Roof to roof you see me flying in the air 
 
Break my body, hold my bones, hold my bones   x 3 
 
Somebody got hurt 
Somebody got hurt 
Somebody got her 
		  

Full key step upFull key step up
Half key step upHalf key step up
Half key step downHalf key step down
Full key step downFull key step down
hide glossary

See also:

tabs James Blunt - Cry tabs Iron Butterfly - IronButterfly-in A Gadda Da Vida tabs Stone Sour - Through glass (ver. 2) tabs Candlebox - Far behind tabs Mudvayne - World so cold tabs James Blunt - Wisemen
e-chords

Other versions:

tabs Pixies - Break My Body
auto scroll beats size up size down change color hide chords drawings
tab show chords e-chords YouTube Clip e-chords hide all tabs e-chords go to top tab

share