Piratas do Caribe

Davy Jones

Piratas do Caribe

tabs

by  EDUCASTILHO

save to print version add songbook text version e-mail correct tuner
chordsukulelecavacokeyboardtabbassdrumsharmonicaflute Guitar Pro
close

there isn't a video lesson for this song

chords

Davy Jones

	  		Introdução 
 
E -------0--1----0----5-----8-6-5----|--5-----6--8---- 
B --3--------------------------------|---------------- 
G ----2-------2---------7----------7-|-----7-------5-- 
D -----------------------------------|---------------- 
A -----------------------------------|---------------- 
E -----------------------------------|---------------- 
 

 
--10-6-5-------5-----|-6----8--5-----------6-5------- 
------------8--------|---8-------6--6-8-5-------6---- 
---------7--------7--|----------------------------7-- 
---------------------|------------------------------- 
---------------------|------------------------------- 
---------------------|------------------------------- 
 

 
------------------------| 
--3-5----------5-3--3---| 
------2-5-2-2-----------| 
------------------------| 
------------------------| 
------------------------| 
 

1 tema 
 
E -----------5-8-6-5----5-6-8-10-6-5----6-8-5------6-5---- 
B -3-5-6--8-----------------------------------6-8------6-- 
G -------------------------------------------------------- 
D -------------------------------------------------------- 
A -------------------------------------------------------- 
E -------------------------------------------------------- 
 
                              Ponte 
 
-------------------|---------------------5-3---| 
--3-5------5-3---3-|-3-5-3-5-6-5---3-5-6-----5-| 
------5-2----------|---------------------------| 
-------------------|---------------------------| 
-------------------|---------------------------| 
-------------------|---------------------------| 
 

2 tema 
 
E -----------5-8-6-5----5-6-8-10-6-5----5---6-8-5------6-5--- 
B -3-5-6--8---------------------------8-----------6-8------6- 
G --------------------7-------------------------------------- 
D ----------------------------------------------------------- 
A ----------------------------------------------------------- 
E ----------------------------------------------------------- 
 

 
------------------| 
---3-5------5-3---| 
-------5-2--------| 
------------------| 
------------------| 
------------------| 
 

3 tema 
 
E ---------------14---17-15-14-----14-14-15-17----19-15-14----14 
B ----14-15--17-----------------17-------------------------17--- 
G 16------------------------------------------------------------ 
D -------------------------------------------------------------- 
A -------------------------------------------------------------- 
E -------------------------------------------------------------- 
 

 
15-17-14--------15p14------------------------------| 
---------15-17---------15------14---------14-------| 
---------------------------16------14--------16----| 
---------------------------------------16----------| 
---------------------------------------------------| 
---------------------------------------------------| 
 

4 tema 
 
E -----------------------------4----------------------------------------- 
B -----------4---7-5-4---4-5-7---5-4---4--5-7-4-------6-5---------------- 
G ----3-4-6--------------------------6----------4-6------4----3-------3-1 
D -6-------------------6------------------------------------6---4--1----- 
A ----------------------------------------------------------------------- 
E ----------------------------------------------------------------------- 
 

5 tema 
 
E --------------0-2----5-3-2-----2---3-5------7-3-2---------2--- 
B -------2-3---------------------------------------------5----0- 
G -4-------------------------------------2---------------------- 
D ----4-------4-----4--------4-----4----------------4----------- 
A -------------------------------------------------------------- 
E -------------------------------------------------------------- 
 


 
--3----5--2------------3-2--------------------- 
------------0---3-5--------3----0-2--------2--- 
----2----------------2----------------2------4- 
-----------------------------4------4---4------ 
----------------------------------------------- 
----------------------------------------------- 
 
		  

See also:

tabs Deep Purple - Strange kind of woman tabs Deep Purple - Smoke On The Water tabs Deep Purple - Time To Kill tabs Albert Hammond Jr - Gfc tabs Deep Purple - Soldier Of Fortune tabs Ira! - Nucleo De Base
e-chords

Other versions:

tabs Caliban - Davy Jones tabs Piratas do Caribe - Davy Jones
auto scroll beats size up size down change color hide chords drawings
tab show chords e-chords YouTube Clip e-chords hide all tabs e-chords go to top tab

share