Pink

Who knew

Pink

tabs Beginner beginner

by  EUROPEU

save to print version add songbook text version e-mail correct tuner
chordsukulelecavacokeyboardtabbassdrumsharmonicaflute Guitar Pro
close

there isn't a video lesson for this song

chords

Who knew

Year: 2006 - Album: I'm Not Dead

	  		Intro : 
e|-----------------------------------------------| 
B|-----------------------------------------------| 
G|-----------------------------------------------| 
D|--11---11-11---11-11-11-14---14-14---14-14-14--| 
A|--12---12-12---12-12-12-12---12-12---12-12-12--| 
E|-----------------------------------------------| 2X 
 
verse 1: 
 
  You took my hand, You showed me how 
e|-----------------------------------------------| 
B|-----------------------------------------------| 
G|-----------------------------------------------| 
D|--11---11-11---11-11-11-14---14-14---14-14-14--| 
A|--12---12-12---12-12-12-12---12-12---12-12-12--| 
E|-----------------------------------------------| 
 
  You promised me you'd be... 
e|-----------------------------------------------| 
B|-----------------------------------------------| 
G|-----------------------------------------------| 
D|--11---11-11---11-11-11-14---14-14---14-14-14--| 
A|--12---12-12---12-12-12-12---12-12---12-12-12--| 
E|-----------------------------------------------|  
 
   Around...        Uh huh... 
e|-----------------------------------------------| 
B|-----------------------------------------------| 
G|-----------------------------------------------| 
D|--12---12-12--12-12----11---11-11--11-11/------| 
A|--14---14-14--14-14----9----9--9---9--9-/------| 
E|-----------------------------------------------| 
 
  That's right... 
e|-----------------------------------------------| 
B|-----------------------------------------------| 
G|-----------------------------------------------| 
D|--9---9--9---9--9--9--9----9--9---9--9---------| 
A|--7---7--7---7--7--7--7----7--7---7--7---------| 
E|-----------------------------------------------| 
 
  I took your words, And I believed 
e|-----------------------------------------------| 
B|-----------------------------------------------| 
G|-----------------------------------------------| 
D|--11---11-11---11-11-11-14---14-14---14-14-14--| 
A|--12---12-12---12-12-12-12---12-12---12-12-12--| 
E|-----------------------------------------------| 
 
  In everything You said to... 
e|-----------------------------------------------| 
B|-----------------------------------------------| 
G|-----------------------------------------------| 
D|--11---11-11---11-11-11-14---14-14---14-14-14--| 
A|--12---12-12---12-12-12-12---12-12---12-12-12--| 
E|-----------------------------------------------|  
  Me...         Yeah huh... 
e|-----------------------------------------------| 
B|-----------------------------------------------| 
G|-----------------------------------------------| 
D|--12---12-12--12-12----11---11-11--11-11/------| 
A|--14---14-14--14-14----9----9--9---9--9-/------| 
E|-----------------------------------------------| 
 
 That's right... 
e|-----------------------------------------------| 
B|-----------------------------------------------| 
G|-----------------------------------------------| 
D|--9---9--9---9--9--9--9----9--9---9--9---------| 
A|--7---7--7---7--7--7--7----7--7---7--7---------| 
E|-----------------------------------------------| 
 
 
Chorus : 
 
If someone said three years from now... You'd be long gone 
       D        E               F#m           A 
e|------2------------0-------------------------2-------------------5-| 
B|------3------------0-------------------------2-------------------5-| 
G|------2------------1-------------------------2-------------------6-| 
D|------0------------2-------------------------4-------------------7-| 
A|-------------------2-------------------------4-------------------7-| 
E|-------------------0-------------------------2-------------------5-| 
 
I'd stand up and punch them up... Cause they're all wrong 
         D          E       F#m                A 
e|--------2----------------0------------2--------------------------5-| 
B|--------3----------------0------------2--------------------------5-| 
G|--------2----------------1------------2--------------------------6-| 
D|--------0----------------2------------4--------------------------7-| 
A|-------------------------2------------4--------------------------7-| 
E|-------------------------0------------2--------------------------5-| 
 
     I know...  better...  Cause you said forever... 
     D         E       F#m             A 
e|---2---------------0------------2---------------------5------------| 
B|---3---------------0------------2---------------------5------------| 
G|---2---------------1------------2---------------------6------------| 
D|---0---------------2------------4---------------------7------------| 
A|-------------------2------------4---------------------7------------| 
E|-------------------0------------2---------------------5------------| 
 
      And ever... Who knew... 
     D          E 
e|---2----------------0----------------------------------------------| 
B|---3----------------0----------------------------------------------| 
G|---2----------------1----------------------------------------------| 
D|---0----------------2----------------------------------------------| 
A|--------------------2----------------------------------------------| 
E|--------------------0----------------------------------------------| 
 
 
 
Intro : 2X 
 
 
 
 
 
 
verse 2: 
 
Remember when we were such fools 
And so convinced and just too cool 
Oh no... No no 
 
I wish I could touch you again 
I wish I could still call you friend 
I'd give anything 
 
 
Chorus : 
 
When someone said count your blessings now 
For they're long gone 
I guess I just didn't know how 
I was all wrong 
 
They knew better 
Still you said forever 
And ever... Who knew 
 
Yeah yeah 
I'll keep you locked in my head 
Until we meet again 
Until we...Until we meet again                 
And I won't forget you my friend 
What happened 
 
Chorus : 
 
If someone said three years from now, You'd be long gone 
I'd stand up and punch them out,Cause they're all wrong and 
That last kiss,I'll cherish, Until we meet again 
And time makes, It harder, I wish I could remember 
But I keep, Your memory, You visit me in my sleep 
My darling, Who knew 
 
My darling 
My darling 
Who knew 
My darling 
I miss you 
My darling 
Who knew 
 
Outro : 
e|------------------------------------------------| 
B|------------------------------------------------| 
G|------------------------------------------------| 
D|--11-----11---11---14-----14----14--------------| 
A|-------12---12---12-----12----12--12------------| 
E|------------------------------------------------| 
 
                                 Who knew... 
e|------------------------------------------------| 
B|------------------------------------------------| 
G|------------------------------------------------| 
D|--11-----11---11---14-----14----14-------11-----| 
A|-------12---12---12-----12----12--12-----12-----| 
E|------------------------------------------------| 
 
 

		  

Full key step upFull key step up
Half key step upHalf key step up
Half key step downHalf key step down
Full key step downFull key step down
hide glossary

See also:

tabs The Cardigans - My Favourite Game tabs Michael Jackson - Billie Jean ( ver. 2 ) tabs Ashlee Simpson - La la tabs Eva Cassidy - Time After Time tabs Hilary Duff - Dreams are made of tabs My Chemical Romance - I Don't Love You
e-chords

Other versions:

tabs Pink - Who knew tabs Pink - Who Knew (ver. 2)
auto scroll beats size up size down change color hide chords drawings
tab show chords e-chords YouTube Clip e-chords hide all tabs e-chords go to top tab

share