Pink

Sober Tab

Pink

Difficulty: BeginnerBeginner

by l%2Ee%2Eo%2E

tuner correct add songbook print version text version save to e-mail
chordsukuleleukulelecavacokeyboardtabbassdrumsharmonicsflute Guitar Pro
close

there isn't a video lesson for this song

request
chords

Sober

Key:  Eb More
Sober Key A#A#
Sober Key BB
Sober Key CC
Sober Key C#C#(one step down)
Sober Key DD(half step down)
Sober Key EbEb(original key)
Sober Key EE(half step up)
Sober Key FF(one step up)
Sober Key F#F#
Sober Key GG
Sober Key G#G#
Sober Key AA
  		INTRO 
e|-------------------------------------| 
B|-------------------------------------| 
G|------6\\\\\------2-----1--2---------| 
D|----6-----------2-----2--2-----------| 
A|--4-----------0----------------------| 
E|---------------------0---------------| 

VERSE 1 
 "I don't wanna be the girl..."         "Or the girl who never..." 
e|-------------------------------------|-------------------------------------| 
B|-------------------------------------|-------------------------------------| 
G|------6\\\\\------2------1-2-2-2-1---|------6\\\\\------2-----1-1h2p2------| 
D|----6-----------2------2--2--------2-|----6-----------2-----2---2----------| 
A|--4-----------0----------------------|--4-----------0----------------------| 
E|---------------------0---------------|--------------------0----------------| 

 "I don't wanna be that call..."        "'Cause I'm the only one..." 
e|-------------------------------------|-------------------------------------| 
B|-------------------------------------|-------------------------------------| 
G|------6\\\\\-----2------1-2-2-2-1----|------6\\\\\-----2------1-1h2p2------| 
D|----6----------2------2--2--------2--|----6----------2------2---2-----1h2p2| 
A|--4----------0-----------------------|--4----------0------------------2----| 
E|---------------------0---------------|--------------------0----------------| 

BRIDGE 
 "Ahhh, Ahhh the sun is..."             "I stayed up again..." 
e|---------------------------0---------|-------------------------------------| 
B|-----------------------------4-0-----|-------------------------------------| 
G|------6\\\\\-----2------1------------|------6\\\\\-----2------1-1h2p2------| 
D|----6----------2------2--2-----------|----6----------2------2---2-----1h2p2| 
A|--4----------0-----------------------|--4----------0------------------2----| 
E|--------------------0----------------|--------------------0----------------| 

 "Oooh, Oooh, I am finding..."          "That's not the way..." 
e|---------------------------0---------|-------------------------------------| 
B|-----------------------------4-0-----|-------------------------------------| 
G|------6\\\\\-----2------1------------|------6\\\\\-----2--6----------------| 
D|----6----------2------2--2-----------|----6----------2----6----------------| 
A|--4----------0-----------------------|--4----------0------4----------------| 
E|--------------------0----------------|-------------------------------------| 

Chorus 
 "I'm safe, up high..."                 "But why do I feel..." 
e|-------------------------------------|-------------------------------------| 
B|------------------------{optional}---|-------------------------------------| 
G|--6-6-x---2-2-x---1-1-x---4-4-x------|--6-6-x---2-2-x---1-1-x--------------| 
D|--6-6-x---2-2-x---2-2-x---4-4-x------|--6-6-x---2-2-x---2-2-x--------------| 
A|--4-4-x---0-0-x---2-2-x---2-2-x------|--4-4-x---0-0-x---2-2-x--------------| 
E|------------------0-0-x--------------|------------------0-0-x--------------| 

 "No pain inside..."                    "But how do I feel..." 
e|-------------------------------------|-------------------------------------| 
B|------------------------{optional}---|-------------------------------------| 
G|--6-6-x---2-2-x---1-1-x---4-4-x------|--6-6-x---2-2-x---6------------------| 
D|--6-6-x---2-2-x---2-2-x---4-4-x------|--6-6-x---2-2-x---6------------------| 
A|--4-4-x---0-0-x---2-2-x---2-2-x------|--4-4-x---0-0-x---4------------------| 
E|------------------0-0-x--------------|-------------------------------------| 

VERSE 2 
 "I don't wanna be the girl..."         "The quiet scares me..." 
e|-------------------------------------|-------------------------------------| 
B|-------------------------------------|-------------------------------------| 
G|------6\\\\\------2------------------|------6\\\\\------2-----1-1h2p2------| 
D|----6-----------2--------------------|----6-----------2-----2---2----------| 
A|--4-----------0----------------------|--4-----------0----------------------| 
E|---------------------0---------------|--------------------0----------------| 

 "Please don't tell me..."              "I won't remember..." 
e|-------------------------------------|-------------------------------------| 
B|-------------------------------------|-------------------------------------| 
G|------6\\\\\-----2------1-2-2-2-1----|------6\\\\\-----2------1-1h2p2------| 
D|----6----------2------2--2--------2--|----6----------2------2---2-----1h2p2| 
A|--4----------0-----------------------|--4----------0------------------2----| 
E|---------------------0---------------|--------------------0----------------| 

BRIDGE 
 "Ahhh, Ahhh the night is..."           "And it whispers to me..." 
e|---------------------------0---------|-------------------------------------| 
B|-----------------------------4-0-----|-------------------------------------| 
G|------6\\\\\-----2------1------------|------6\\\\\-----2------1-1h2p2------| 
D|----6----------2------2--2-----------|----6----------2------2---2-----1h2p2| 
A|--4----------0-----------------------|--4----------0------------------2----| 
E|--------------------0----------------|--------------------0----------------| 

 "But I am falling..."                  "And if I let myself go..." 
e|---------------------------0---------|-------------------------------------| 
B|-----------------------------4-0-----|-------------------------------------| 
G|------6\\\\\-----2------1------------|------6\\\\\-----2--6----------------| 
D|----6----------2------2--2-----------|----6----------2----6----------------| 
A|--4----------0-----------------------|--4----------0------4----------------| 
E|--------------------0----------------|-------------------------------------| 

Chorus 

BREAK 1 
 "I'm comin' down, comin' down..."      "Lookin' for myself..." 
e|-------------------------------------|-------------------------------------| 
B|------------------------{optional}---|-------------------------------------| 
G|--6-6-x---2-2-x---1-1-x---4-4-x------|--6-6-x---2-2-x---6------------------| 
D|--6-6-x---2-2-x---2-2-x---4-4-x------|--6-6-x---2-2-x---6------------------| 
A|--4-4-x---0-0-x---2-2-x---2-2-x------|--4-4-x---0-0-x---4------------------| 
E|------------------0-0-x--------------|-------------------------------------| 

 "I'm comin' down, comin' down..."      "Lookin' for myself..." 
e|-------------------------------------|-------------------------------------| 
B|------------------------{optional}---|-------------------------------------| 
G|--6-6-x---2-2-x---1-1-x---4-4-x------|--6-6-x---2-2-x---6------------------| 
D|--6-6-x---2-2-x---2-2-x---4-4-x------|--6-6-x---2-2-x---6------------------| 
A|--4-4-x---0-0-x---2-2-x---2-2-x------|--4-4-x---0-0-x---4------------------| 
E|------------------0-0-x--------------|-------------------------------------| 

BREAK 2 
 "When it's good, then it's good..."    "'Til you're tryin' to find..." 
e|-------------------------------------|-------------------------------------| 
B|-------------------------------------|-------------------------------------| 
G|------6\\\\\------2------1-2-2-2-1---|------6\\\\\------2-------4-4--------| 
D|----6-----------2------2--2--------2-|----6-----------2-------4--4---------| 
A|--4-----------0----------------------|--4-----------0-------2--------------| 
E|---------------------0---------------|-------------------------------------| 

"I have heard myself cry..."            "Broken down in agony..." 
e|-------------------------------------|-------------------------------------| 
B|-------------------------------------|-------------------------------------| 
G|------6\\\\\------2------1-2-2-2-1---|-----6\\\\\------2-------4-4---------| 
D|----6-----------2------2--2--------2-|----6-----------2-------4-4----------| 
A|--4-----------0----------------------|--4-----------0-------2--------------| 
E|---------------------0---------------|-------------------------------------| 

e|-------------------------------------|-------------------------------------| 
B|-------------------------------------|-------------------------------------| 
G|------6\\\\\------2------1-2-2-2-1---|-----6\\\\\------2-----1--2----------| 
D|----6-----------2------2--2--------2-|---6-----------2-----2--2------------| 
A|--4-----------0----------------------|-4-----------0-----------------------| 
E|---------------------0---------------|--------------------0----------------| 

Chorus x2 

OUTRO 
e|-------------------------------------|-------------------------------------| 
B|-------------------------------------|-------------------------------------| 
G|------6\\\\\------2-----1--2-1-------|-----6\\\\\------2-----1--2-2-2-1----| 
D|----6-----------2-----2--2-----------|---6-----------2-----2--2--------2---| 
A|--4-----------0----------------------|-4-----------0-----------------------| 
E|---------------------0---------------|--------------------0----------------| 

e|-------------------------------------|-------------------------------------| 
B|-------------------------------------|-------------------------------------| 
G|------6\\\\\------2-----1--2-1-------|-----6\\\\\------2------6-6----------| 
D|----6-----------2-----2--2-----------|---6-----------2------6---6----------| 
A|--4-----------0----------------------|-4-----------0------4-----4----------| 
E|---------------------0---------------|-------------------------------------| 
	  

Search Paypal
auto scroll beats size up size down change color hide chords drawings
tab show chords e-chords YouTube Clip e-chords hide all tabs e-chords go to top tab

share with facebook