Pink

Ave Maria

Pink

tabs Intermediate intermediate

by  LAY98MCFLY0408

save to print version add songbook text version e-mail correct tuner
chordsukulelecavacokeyboardtabbassdrumsharmonicaflute Guitar Pro
close

there isn't a video lesson for this song

chords

Ave Maria

	  		e|------------------------------------------------------------------------------| 
B|------------------------------------------------------------------------------| 
G|------------------------------------------------------------------------------| 
D|-----7-----10---- 8------7----------------------------------------------------| 
A|-5-5---8-8--------------------------------------------------------------------| 
E|--------------6-6------5------------------------------------------------------| 

e|-------------------------------------------------------------------------------| 
B|-------------------------------------------------------------------------------| 
G|-------------------------------------------------------------------------------| 
D|-----77--1010--88---77---------------------------------------------------------| 
A|-----55---8--8-----------------------------------------------------------------| 
E|------------------66--55-------------------------------------------------------| 
		  

auto scroll beats size up size down change color hide chords drawings
tab show chords e-chords YouTube Clip e-chords hide all tabs e-chords go to top tab

share