Pink Floyd

home > Pink Floyd

Talkin Hawkin Tab

Pink Floyd

Difficulty: nolevelnolevel

by hugo%5Frodrigues

tuner correct add songbook print version text version save to e-mail
chordsukulelecavacokeyboardtabbassdrumsharmonicsflute Guitar Pro
chords

Talkin Hawkin

  		

0:13 

e|--------14/15--14~--12~----------------------------------------------------| 
B|--7\6------------------12p10-------7/8\7--5\3/5-5\3------------------------| 
G|-----------------------------12~-------------------------------------------| 
D|-----------------------------------------------------8p7p5h7-5-------------| 
A|---------------------------------------------------------------------------| 
E|---------------------------------------------------------------------------| 

0:35 

e|-----------------------------14b-10/12-12-12p10----10-12-------------------| 
B|--7/8-8/12\7---5\3/5-5/7\3---------------------h12-------------------------| 
G|---------------------------------------------------------------------------| 
D|---------------------------------------------------------------------------| 
A|---------------------------------------------------------------------------| 
E|---------------------------------------------------------------------------| 

0:49 

e|--------19-19-19-19p17-15--17-17-15--------------15------------------------| 
B|--15-15-----------------------------17---15b-15b----15br-------------------| 
G|---------------------------------------------------------------------------| 
D|---------------------------------------------------------------------------| 
A|---------------------------------------------------------------------------| 
E|---------------------------------------------------------------------------| 

0:58 

e|------5/7--7/10--3/5\3-2-----------10-12-10b--10b-10br----10---------------------| 
B|--5~---------------------3/5-12-12---------------------12----10b--10b-10br-------| 
G|--------------------------------------------------------------------------12-9---| 
D|---------------------------------------------------------------------------------| 
A|---------------------------------------------------------------------------------| 
E|---------------------------------------------------------------------------------| 

1:21 

e|---------------------------------------------------------------------------| 
B|--12\10-12\10-12/15--------------------------------------------------------| 
G|---------------------------------------------------------------------------| 
D|---------------------------------------------------------------------------| 
A|---------------------------------------------------------------------------| 
E|---------------------------------------------------------------------------| 

1:34 

e|--14/15------------------10/12---------------------------------------------| 
B|---------------------------------------------------------------------------| 
G|---------------------------------------------------------------------------| 
D|---------------------------------------------------------------------------| 
A|---------------------------------------------------------------------------| 
E|---------------------------------------------------------------------------| 

2:00 

e|--14b-14-12-14b-12h14---------------------------------------------------------| 
B|-----------------------17-15-------15-15-15-17-15b----------------------------| 
G|-----------------------------16-14------------------14-12-14-14b-14-12----12--| 
D|-----------------------------------------------------------------------14-----| 
A|------------------------------------------------------------------------------| 
E|------------------------------------------------------------------------------| 


************************************ 

| /   slide up 
| \   slide down 
| h   hammer-on 
| p   pull-off 
| ~   vibrato 
| +   harmonic 
| x   Mute note 
| b   Bend 
| pb  Pre-bend 
| br  Bend release 
| pbr Pre-bend release 
| brb Bend release bend 

************************************ 
	  

Search Paypal
auto scroll beats size up size down change color hide chords drawings
tab show chords e-chords YouTube Clip e-chords hide all tabs e-chords go to top tab