Pink Floyd

home > Pink Floyd

Take it Back Tab

Pink Floyd

Difficulty: ExpertExpert

tuner correct add songbook print version text version save to e-mail
chordsukulelecavacokeyboardtabbassdrumsharmonicsflute Guitar Pro
chords

Take it Back

Year: 1994 - Album: Division Bell

  		 
  G 
e|------------| 
B|------3--3--| 
G|----0-------| 
D|--5-----5---|  Primeira sequencia.....Repetir 12 vezes 
A|------------| (mute D string with wrist) 
E|------------| 
	G		      ^--Deixe badalar(Varios ecos)	 
e|-------------------3---3----3--------------------------------| 
B|------3--3-----3-----3------1-(pausa-------3---3-------------| 
G|----0--------0---0-------0-----com------0-------------------| 
D|--5-----5--5-------------------eco)----5-----5--------------| 
A|-------------------------------------------------------------| 
E|-------------------------------------------------------------| 
 
Repetir a primeira sequencia mais algumas vezes 
 
e|---------------3--3------------------------------------------| 
B|------3--3------3-1------(Pausa com eco denovo)-------------| 
G|----0--------0-----------------------------------------------| 
D|--5-----5--5-------------------------------------------------| 
A|-------------------------------------------------------------| 
E|-------------------------------------------------------------| 
 
Repetir a primeira sequencia  
 
e|-------3----| 
B|---3---3----| 
G|----0--0----|<----iniciar into lyrics 
D|-5-----5----|   
A|------------|  
E|------------| 
 
 
(G) 
Her love rains down on me... 
I listen to her breathing, ... 
(C) 
I was thinking all about her, ... 
(G) 
We were spinning into darkness.... 
 
She could (Cadd9) Take it ...(Csus) take ... 
 
   (G) 
Someday 
 
 
Someday 
(continua G por um momento) 
 
 
		   ^-----deixe as 8 badaladas com 10 
e|-------------------10---------------------| 
B|-8(hold)/10--12--8-----(12-10-8)----------| <---(12-10-8)=toque string uma vez, 
G|------------------------------------------|	deixe os dedos de cima em sequencia 
D|------------------------------------------|   
A|------------------------------------------|  
E|------------------------------------------| 
 
e|-------------5h7----3-------5/7---10-10h12--12bend13--12/10--| 
B|-8/5---5(p)-------3---3--------------------------------------|  (p) shake/ 
G|-------------------------------------------------------------|dedo polegar 
D|-------------------------------------------------------------|quando a nota é  
A|-------------------------------------------------------------|tocada 
E|-------------------------------------------------------------| 
 
e|-7/3---------------------------------------------------------| 
B|----3----0h3--3h5-5--5h7-7/8-8/10--12---12/(mute after 8)----| 
G|------0------------------------------------------------------| 
D|-------------------------------------------------------------| 
A|-------------------------------------------------------------| 
E|-------------------------------------------------------------| 
 
			(h)= bata 3, deixar 3 dedos subirem com outro dedo na 2 
e|---3h2--3h0-----3h2--3h0-----3h2-3-------3h2-3---------------|\  
B|----------------------------------3-----------3--------------|  \ 
G|-------------------------------------------------------------|   > Repetir x3  
D|-------------------------------------------------------------|  / 
A|-------------------------------------------------------------| / 
E|-------------------------------------------------------------|/ 
 
 
no final da terceira repeticao, a segunda guitarra vem com isto 
(you'll get the idea) 
e|---15h14--15h12----15h14--15h12----15h14--15-----15h14-------| 
B|---------------------------------------------15--------15----| 
G|-------------------------------------------------------------| 
D|-------------------------------------------------------------| 
A|-------------------------------------------------------------| 
E|-------------------------------------------------------------| 
 
e|---15h14--15h12----15h14--15h12-----15h14--17----15----------| 
B|-------------------------------------------------15----------| 
G|-------------------------------------------------0-----------| 
D|-------------------------------------------------17----------| 
A|-------------------------------------------------------------| 
E|-------------------------------------------------------------| 
Someday(Cadd9)   G 
 
 
_______________________________________________________ 
Contribuição: Marcos Samerson([email protected]) 

	  

Full key step upFull key step up
Half key step upHalf key step up
Half key step downHalf key step down
Full key step downFull key step down
Search Paypal
auto scroll beats size up size down change color hide chords drawings
tab show chords e-chords YouTube Clip e-chords hide all tabs e-chords go to top tab