Pink Floyd

home > Pink Floyd

Nobody Home Tab

Pink Floyd

Difficulty: AdvancedAdvanced

by dxwatson001

tuner correct add songbook print version text version save to e-mail
chordsukulelecavacokeyboardtabbassdrumsharmonicsflute Guitar Pro
chords

Nobody Home

  		                                  Nobody Home                                    
 
 
                                                                      Pink Floyd 
Guitar 
 
 
 
     Am                    C+                          C                     
                                    |------3-----|                           
     H        Q    Q       H        Q    Q    E  E     E  Q    E  H          
E||--0--------L---------|--0--------0---------------|--0-------------------| 
B||--1--------L---------|--1-------------3----1--3--|-----1-------1--------| 
G||--2--------L----2----|--1------------------------|----------0-----------| 
D||--2--------L---------|--2------------------------|----------------------| 
A||--0--------L---------|--0------------------------|----------------------| 
E||---------------------|---------------------------|----------------------| 
 
 
  D7                     F                   Fm                 
  Q    Q    Q    Q       W                   W                  
--2-------------------|--1----------------|--1----------------| 
--1-------------------|--1----------------|--1----------------| 
--2-------------------|--2----------------|--1----------------| 
--0--------------0----|--3----------------|--3----------------| 
------------3---------|-------------------|-------------------| 
----------------------|-------------------|-------------------| 
 
 
  C                                         E                  
  W                   H        Q    Q       W                  
--0----------------|--L------------------|--0----------------| 
--1----------------|--L------------------|--0----------------| 
--0----------------|--L------------------|--1----------------| 
--2----------------|--L-------------0----|--2----------------| 
--3----------------|--L--------3---------|--2----------------| 
-------------------|---------------------|--0----------------| 
 
 
                           F                                         
  Q.     E  E  E  E  E     W                   H        E  E  Q      
--L---------------------|--1----------------|--L--------1--1--1----| 
--L---------------------|--1----------------|--L--------1--1--1----| 
--L---------------------|--2----------------|--L--------2--2--2----| 
--L---------2-----0-----|--3----------------|--L--------3--3--3----| 
--L---------------------|-------------------|----------------------| 
--L------0-----0-----0--|-------------------|----------------------| 
 
 
  C                            F            C                  
  W                   H        Q    Q       W                  
--0----------------|--L--------1----1----|--0----------------| 
--1----------------|--L--------1----1----|--1----------------| 
--0----------------|--L--------2----2----|--0----------------| 
--2----------------|--L--------3----3----|--2----------------| 
--3----------------|--L------------------|--3----------------| 
-------------------|---------------------|-------------------| 
 
 
                      E                   E7                  F                  
  W                   W                   W                   W                  
--L----------------|--0----------------|--0----------------|--1----------------| 
--L----------------|--0----------------|--0----------------|--1----------------| 
--L----------------|--1----------------|--1----------------|--2----------------| 
--L----------------|--2----------------|--0----------------|--3----------------| 
--L----------------|--2----------------|--2----------------|--3----------------| 
-------------------|--0----------------|--0----------------|--1----------------| 
 
 
                      C                                       C                  
  W                   W                   W                   W                  
--L----------------|--0----------------|--L----------------|--0----------------| 
--L----------------|--1----------------|--L----------------|--1----------------| 
--L----------------|--0----------------|--L----------------|--0----------------| 
--L----------------|--2----------------|--L----------------|--2----------------| 
--L----------------|--3----------------|--L----------------|--3----------------| 
--L----------------|-------------------|-------------------|-------------------| 
 
 
                      C7                                      F                  
  W                   W                   W                   W                  
--L----------------|--0----------------|--L----------------|--1----------------| 
--L----------------|--1----------------|--L----------------|--1----------------| 
--L----------------|--3----------------|--L----------------|--2----------------| 
--L----------------|--2----------------|--L----------------|--3----------------| 
--L----------------|--3----------------|--L----------------|--3----------------| 
-------------------|-------------------|-------------------|--1----------------| 
 
 
  Fm                  C        E7          Am       D7         
  W                   H        H           H        H          
--1----------------|--0--------0--------|--0--------2--------| 
--1----------------|--1--------0--------|--1--------1--------| 
--1----------------|--0--------1--------|--2--------2--------| 
--3----------------|--2--------0--------|--2--------0--------| 
--3----------------|--3--------2--------|--0-----------------| 
--1----------------|-----------0--------|--------------------| 
 
 
  G                   E7                           Am                 
                      |----3----|                                     
  W                   Q    Q    Q    E  E  Q       W                  
--3----------------|--0--------------0-----0----|--0----------------| 
--0----------------|--0---------0----0-----0----|--1----------------| 
--0----------------|--1----2--------------------|--2----------------| 
--0----------------|--0-------------------------|--2----------------| 
--2----------------|--2-------------------------|--0----------------| 
--3----------------|--0-------------------------|-------------------| 
 
 
                C+      C6                           C          
  H        Q    Q       W                   H        H          
--L--------0----0----|--0----------------|--L--------0--------| 
--L--------1----1----|--1----------------|--L--------1--------| 
--L--------2----1----|--2----------------|--L--------0--------| 
--L--------2----2----|--2----------------|--L--------2--------| 
--L--------0----0----|--3----------------|--L--------3--------| 
---------------------|-------------------|--------------------| 
 
 
  D                   Fm6                 C                  
  W                   W                   W                  
--2----------------|--1----------------|--0----------------| 
--3----------------|--1----------------|--1----------------| 
--2----------------|--1----------------|--0----------------| 
--0----------------|-------------------|--2----------------| 
-------------------|-------------------|--3----------------| 
-------------------|-------------------|-------------------| 
 
 
           F            C                            F           
  H        Q    Q       W                   H        Q    Q      
--L--------1----1----|--0----------------|--L--------1----1----| 
--L--------1----1----|--1----------------|--L--------1----1----| 
--L--------2----2----|--0----------------|--L--------2----2----| 
--L--------3----3----|--2----------------|--L--------3----3----| 
--L------------------|--3----------------|--L------------------| 
---------------------|-------------------|---------------------| 
 
 
  C                                       E                  
  W                   W                   W                  
--0----------------|--L----------------|--0----------------| 
--1----------------|--L----------------|--0----------------| 
--0----------------|--L----------------|--1----------------| 
--2----------------|--L----------------|--2----------------| 
--3----------------|--L----------------|--2----------------| 
-------------------|-------------------|--0----------------| 
 
 
               E7      F                                      
  H.           Q       W                   W                  
--L------------2----|--1----------------|--L----------------| 
--L------------0----|--1----------------|--L----------------| 
--L------------1----|--2----------------|--L----------------| 
--L------------0----|--3----------------|--L----------------| 
--L------------2----|--3----------------|--L----------------| 
--L------------0----|--1----------------|--L----------------| 
 
 
  C                            F            C                  
  W                   H        Q    Q       W                  
--0----------------|--L--------1----1----|--0----------------| 
--1----------------|--L--------1----1----|--1----------------| 
--0----------------|--L--------2----2----|--0----------------| 
--2----------------|--L--------3----3----|--2----------------| 
--3----------------|--L------------------|--3----------------| 
-------------------|---------------------|-------------------| 
 
 
                      E                                       F                  
  W                   W                   W                   W                  
--L----------------|--0----------------|--L----------------|--1----------------| 
--L----------------|--0----------------|--L----------------|--1----------------| 
--L----------------|--1----------------|--L----------------|--2----------------| 
--L----------------|--2----------------|--L----------------|--3----------------| 
--L----------------|--2----------------|--L----------------|--3----------------| 
-------------------|--0----------------|--L----------------|--1----------------| 
 
 
                      C                                       C                  
  W                   W                   W                   W                  
--L----------------|--0----------------|--L----------------|--0----------------| 
--L----------------|--1----------------|--L----------------|--1----------------| 
--L----------------|--0----------------|--L----------------|--0----------------| 
--L----------------|--2----------------|--L----------------|--2----------------| 
--L----------------|--3----------------|--L----------------|--3----------------| 
--L----------------|-------------------|-------------------|-------------------| 
 
 
                      C7                                      F                  
  W                   W                   W                   W                  
--L----------------|--0----------------|--L----------------|--1----------------| 
--L----------------|--1----------------|--L----------------|--1----------------| 
--L----------------|--3----------------|--L----------------|--2----------------| 
--L----------------|--2----------------|--L----------------|--3----------------| 
--L----------------|--3----------------|--L----------------|-------------------| 
-------------------|-------------------|-------------------|-------------------| 
 
 
  Fm                  C        E           Am       D7         
  W                   H        H           H        H          
--1----------------|--0--------0--------|--0--------2--------| 
--1----------------|--1--------0--------|--1--------1--------| 
--1----------------|--0--------1--------|--2--------2--------| 
--3----------------|--2--------2--------|--2--------0--------| 
-------------------|--3--------2--------|--0-----------------| 
-------------------|-----------0--------|--------------------| 
 
 
  G                   E7                  Am                                     
  W                   W                   W                   W                  
--3----------------|--0----------------|--0----------------|--L----------------| 
--0----------------|--0----------------|--1----------------|--L----------------| 
--0----------------|--1----------------|--2----------------|--L----------------| 
--0----------------|--0----------------|--2----------------|--L----------------| 
--2----------------|--2----------------|--0----------------|--L----------------| 
--3----------------|--0----------------|-------------------|-------------------| 
 
 
  C                                       D7                  Fm6                
  W                   W                   W                   W                  
--0----------------|--L----------------|--2----------------|--1----------------| 
--1----------------|--L----------------|--1----------------|--1----------------| 
--0----------------|--L----------------|--2----------------|--1----------------| 
--2----------------|--L----------------|--0----------------|--0----------------| 
--3----------------|--L----------------|-------------------|-------------------| 
-------------------|-------------------|-------------------|-------------------| 
 
 
  C                            F            C                  
  W                   H        Q    Q       W                  
--0----------------|--L--------1----1----|--0----------------| 
--1----------------|--L--------1----1----|--1----------------| 
--0----------------|--L--------2----2----|--0----------------| 
--2----------------|--L--------3----3----|--2----------------| 
--3----------------|--L------------------|--3----------------| 
-------------------|---------------------|-------------------| 
 
 
           F            C                                      
  H        Q    Q       W                   W                  
--L--------1----1----|--0----------------|--L----------------| 
--L--------1----1----|--1----------------|--L----------------| 
--L--------2----2----|--0----------------|--L----------------| 
--L--------3----3----|--2----------------|--L----------------| 
--L------------------|--3----------------|--L----------------| 
---------------------|-------------------|-------------------| 
 
 
  E                   E7                                      
  W                   W                   W                   
--0----------------|--0----------------|--L----------------|| 
--0----------------|--0----------------|--L----------------|| 
--1----------------|--1----------------|--L----------------|| 
--2----------------|--0----------------|--L----------------|| 
--2----------------|--2----------------|--L----------------|| 
--0----------------|--0----------------|--L----------------|| 
 
 
 
 
Duration Legend 
--------------- 
W - whole 
H - half 
Q - quarter 
E - 8th 
S - 16th 
T - 32nd 
X - 64th 
. - note dotted 
|-n-|  - n-tuplets 
 
 
Tablature Legend 
---------------- 
L - tied note 
x - dead note 
g - grace note 
(n) - ghost note 
> - accentuded note 
NH - natural harmonic 
AH - artificial harmonic 
TH - tapped harmonic 
SH - semi harmonic 
PH - pitch harmonic 
h - hammer on 
p - pull off 
b - bend 
br - bendRelease 
pb - preBend 
pbr - preBendRelease 
brb - bendReleaseBend 
\n/ - tremolo bar dip 
\n - tremolo bar dive 
-/n - tremolo bar Release up 
/n\ - tremolo bar inverted dip 
/n - tremolo bar return 
-\n - tremolo bar Release down 
S - shift slide 
s - legato slide 
/ -  slide into from below or out of upwards 
\ -  slide into from above or out of downwards 
~ - vibrato 
W - wide vibrato 
tr - trill 
TP - tremolo picking 
T - tapping 
S - slap 
P - pop 
< - fade in 
^ - brush up 
v - brush down 
 

	  

Full key step upFull key step up
Half key step upHalf key step up
Half key step downHalf key step down
Full key step downFull key step down
Search Paypal
auto scroll beats size up size down change color hide chords drawings
tab show chords e-chords YouTube Clip e-chords hide all tabs e-chords go to top tab