Pink Floyd

home > Pink Floyd

Have a Cigar Tab

Pink Floyd

Difficulty: ExpertExpert

tuner correct add songbook print version text version save to e-mail
chordsukulelecavacokeyboardtabbassdrumsharmonicsflute Guitar Pro
chords

Have a Cigar

Year: 1975 - Album: Wish You Were Here

  		 
Notes: 
 
X = muted  / = slide up   = slide down or dive  B = bend  (n)B = pre-bend 
R = release  H = hammer-on  P = pull-off  ~~ = vibrate  PM = palm mute 
 
 
  gtr 1 (w/phaser) 
                  Rhy. Fig. 1                        end Rhy. Fig. 1 
|---------------||-------------------------|------------------------| 
|---------------||-------------------------|------------------------| 
|----XXXXX-||-------------------------|------------------------| 
|----XXXXX-||----2--------2--------2--|---2--------2-----------| 
|----XXXXX-||----2--------2--------2--|---2--------2-----------| 
|----XXXXX-||-0-----0--3B-------------|------3--0-----3~~~~~~~-| 
 
 
 Rhy. Fig. 2                          end Rhy. Fig. 2 w/Rhy. Fig. 1 
|-------------------------|--------------------------|------------------| 
|-------------------------|--------------------------|------------------| 
|-------------------------|--------------------------|------------------| 
|----2--------2--------2--|---2--------2----XXXX-|------------------| 
|----2--------2--------2--|---2--------2----XXXX-|------------------| 
|-0-----0--3B-------------|------3--0-------XXXX-|------------------| 
 
 
  gtr 2 
|--------------------|-------------------------|------------------------| 
|--------------------|-------------------------|------------------------| 
|--------------------|-------------------------|------------------------| 
|--------------------|-------------------------|------------------------| 
|--------------------|---------------------/7--|---5--------------------| 
|--------------------|-------------------------|------7--6--5--3~~~~~~~-| 
| 
| gtr 1 
|--------------------|-------------------------|------------------------| 
|--------------------|-------------------------|------------------------| 
|--------------------|-------------------------|------------------------| 
|--------------------|----2--------2--------2--|---0--------------------| 
|--------------------|----2--------2-----------|------2--1--0-----------| 
|--------------------|-0-----0--3B-------------|---------------3~~~~~~~-| 
 
 
                                     w/bar 
|--------------------|------------------------|-------------------------| 
|--------------------|------------------------|-------------------------| 
|-----------------2B-|(4)------------~~~~~~~~~|~~~---------------------| 
|--------------------|------------------------|-------------------------| 
|--------------------|------------------------|-------------------------| 
|--------------------|------------------------|-------------------------| 
| 
|w/Rhy. Fig 1                                  Rhy. Fig. 3-------------} 
|--------------------|------------------------|-------------------------| 
|--------------------|------------------------|-------------------------| 
|--------------------|------------------------|-------------------------| 
|--------------------|------------------------|----2--------2-----------| 
|--------------------|------------------------|----2--------2-----------| 
|--------------------|------------------------|-0-----0--3B-------------| 
 
 
 
|---------------------------------|---------------------------------| 
|---------------------------------|---------------------------------| 
|---------------------------------|---------------------------------| 
|---------------------------------|---------------------------------| 
|-7-----------9-----------10------|---------------------------------| 
|---------------------------------|-8-------------------------------| 
| 
|Rhy. Fig. 4 
|---------------------------------|---------------------------------| 
|---------------------------------|-----------------5---------------| 
|---------------------------------|-----------------5---------------| 
|-2-----------4-----------5-------|-----------------5-----------4---| 
|---------------------------------|-3---------------3-----------2---| 
|---------------------------------|---------------------------------| 
 
 
  gtr 1 
|---------------------------------|---------------------------------| 
|-----5-----------5---5-------5---|----^------------5---------------| 
|-----5-----------5---5-------5---|-4--/5-----------5-------5-------| 
|-4---5-----------5---5-------5---|-4--/5-------5---5-------5-------| 
|-2---3-----------3---3-----------|-2--/3-----------3-------3-------| 
|---------------------------------|---------------------------------| 
 
 
  gtr 2 
|---------------------------------|-------------------------------------| 
|---------------------------------|-------------------------12-12-12-12-| 
|---------------------------------|-------------------------12-12-12-12-| 
|---------------------------------|-2-----------------------------------| 
|-------------10----------9------|-------------------------------------| 
|-8-------------------------------|-------------------------------------| 
| 
| gtr 1            end Rhy. Fig. 4 w/Rhy. Fig 1 
|---------------------------------|-------------------------------------| 
|---------------------------------|-------------------------------------| 
|---------------------------------|-------------------------------------| 
|-------------5-----------4-------|-------------------------------------| 
|-3-------------------------------|-------------------------------------| 
|---------------------------------|-------------------------------------| 
 
 
  gtr 2                            w/Rhy. Fig. 3 
|---------------------------------|---------------------------------| 
|-12-----------------------------|---------------------------------| 
|-12-----------------------------|---------------------------------| 
|---------------------------------|---------------------------------| 
|---------------------------------|---------------------------------| 
|---------------------------------|---------------------------------| 
 
 
  gtr 2 
|---------------------------------|---------------------------------| 
|---------------------------------|---------------------------------| 
|---------------------------------|---------------------------------| 
|---------------------------------|---------------------------------| 
|-7-----------9-----------10------|---------------------------------| 
|---------------------------------|-8-------------------------------| 
| gtr 1 
|Rhy. Fig. 5 
|---------------------------------|---------------------------------| 
|---------------------------------|-----------------5-----------5---| 
|---------------------------------|-----------------5-----------5---| 
|-2-----------4-----------5-------|-----------------5-----------5---| 
|---------------------------------|-3---------------3---------------| 
|---------------------------------|---------------------------------| 
 
 
 
|---------------------------------|---------------------------------| 
|---------------------------------|---------------------------------| 
|------------(9)B(12)-----R-------|(9)------------------------------| 
|---------------------------------|---------------------------------| 
|---------------------------------|---------------------------------| 
|---------------------------------|---------------------------------| 
| 
| 
|---------------------------------|---------------------------------| 
|-----------------5---5-------5---|-5---------------5---------------| 
|-----------------5---5-------5---|-5-----------5---5---------------| 
|-----------------5---5-------5---|-5-----------5---5---------------| 
|---------3---3-------------------|-3-------3-------3---------------| 
|---------------------------------|---------------------------------| 
          PM--} 
 
 
|---------------------------------|---------------------------------| 
|---------------------------------|---------------------------------| 
|---------------------------------|---------------------------------| 
|-0-------------------------------|---------------------------------| 
|---------------------------------|-10----------9-----------7-------| 
|---------------------------------|---------------------------------| 
| 
| 
|---------------------------------|---------------------------------| 
|---------------------7-----------|---------------------------------| 
|---------------------7-----------|---------------------------------| 
|---------------------7-----------|-5-----------4-------------------| 
|-5-------------------------------|-------------------------7-------| 
|---------------------------------|---------------------------------| 
 
 
 
|---------------------------------------|-------------------------------| 
|---------------------------------------|-------------------------------| 
|---------------------------------------|-------------------------------| 
|---------------------------------------|-------------------------------| 
|---------------------------------------|-7~~~~~~~~~~~~~~~~~~~~~--------| 
|-----10--------9-------8---9---10--11--|-------------------------------| 
| 
|                        end Rhy. Fig. 5 w/Rhy. Fig. 1 
|---------------------------------------|-------------------------------| 
|---------------------------------------|-------------------------------| 
|---------------------------------------|-------------------------------| 
|---------------------------------------|-------------------------------| 
|-----5---------4-------3---4---5---6---|-------------------------------| 
|---------------------------------------|-------------------------------| 
 
 
  gtr 2                      w/bar w/Rhy. Fig. 2 
|---------------------------------|---------------------------------| 
|---------------------------------|---------------------------------| 
|---------------------19B(21)~~~~~|~~~~~~~~~~~~~~~~~~~~~~~~~~~~~---| 
|---------------------------------|---------------------------------| 
|---------------------------------|---------------------------------| 
|---------------------------------|---------------------------------| 
 
 
                                    w/Rhy. Fig. 1 (2x) 
|---------------------------------||---------------------------------| 
|---------------------------------||---------------------------------| 
                                     Come in here,   dear    boy, 
 
                                                      w/bar 
|---------------------------------|---------------------------------| 
|---------------------------------|---------------------------------| 
|---------------------------------|--------------2B(4)~~~~~~~~~~~~~~| 
|---------------------------------|---------------------------------| 
|---------------------------------|---------------------------------| 
|---------------------------------|---------------------------------| 
  have a  ci - gar,  you're gon-na  go      far. 
 
  gtr 2 
|---------------------------------|---------------------------------| 
|---------------------------------|---------------------------------| 
|~~~~~~~~~~~~~~~~~~~~~-----------|---------------------------------| 
|---------------------------------|---------------------------------| 
|---------------------------------|---------------------------------| 
|---------------------------------|---------------------------------| 
| 
| gtr 1 
|---------------------------------|---------------------------------| 
|---------------------------------|---------------------------------| 
|---------------------------------|---------------------------------| 
|---------------------------------|-----2-----------2-----------2---| 
|---------------------------------|-----2-----------2-----------2---| 
|---------------------------------|-0-------0---3B------------------| 
                   You're gon - na  fly high,                 you're 
  gtr 1 
 Rhy. Fig. 6                                         end Rhy. Fig. 6 
|---------------------------------|---------------------------------| 
|-----------------1---------------|-----------------3---------------| 
|-------------0-------------------|-------------0-------0-----------| 
|---------2-----------0-------0---|---------4---------------4-------| 
|-3-----------------------2-------|-5-------------------------------| 
|---------------------------------|---------------------------------| 
  never gonna die, you're gon - na make it if you try, they're gonna 
  gtr 2 
 w/Rhy. Fig. 1 (4x) 
|---------------------------------|---------------------------------| 
|-------------15------------------|---------------------------------| 
|-------(14)B(15)--------R--------|(14)-----------------------------| 
|---------------------------------|---------------------------------| 
|---------------------------------|---------------------------------| 
|---------------------------------|---------------------------------| 
  love    you. 
 
 
|---------------------------------|---------------------------------|| 
|---------------------------------|---------------------------------|| 
                                                          Well, I've 
 
 
|---------------------------------|----------------------------^----| 
|---------------------------------|-------------------------12-/14--| 
|---------------------------------|-------------------------12-/14--| 
|---------------------------------|---------------------------------| 
|---------------------------------|---------------------------------| 
|---------------------------------|---------------------------------| 
  always had a deep respect, and I  mean that most   sin  -  cere - 
 
    w/bar 
|---------------------------------|---------------------------------| 
|-12~~~~~~~~~~~~~~----------------|---------------------------------| 
|-12~~~~~~~~~~~~~~----------------|------------------2B(4)----------| 
|---------------------------------|---------------------------------| 
|---------------------------------|---------------------------------| 
|---------------------------------|---------------------------------| 
  ly.                                                            The 
 
 w/Rhy. Fig. 3                     w/Rhy. Fig. 6 
|---------------------------------|---------------------------------| 
|---------------------------------|---------------------------------| 
|---R(2)--------------------------|---------------------------------| 
|---------------------------------|---------------------------------| 
|---------------------------------|---------------------------------| 
|---------------------------------|---------------------------------| 
  band is just  fantastic, that is  really  what I  think.      Oh, 
 
                                   w/Rhy. Fig. 1 (2x) 
|---------------------------------|-------------------------------------| 
|---------------------------------|---------------------15B(17)-15B(17)~| 
|---------------------------------|-------------------------------------| 
|---------------------------------|-------------------------------------| 
|---------------------------------|-------------------------------------| 
|---------------------------------|-------------------------------------| 
  by   the way,      which one's    Pink? 
 
 
|---------------------------------|---------------------------------| 
|~~~~~~~~~~~~~~~~~~~R(15)---------|---------------------------------| 
|---------------------------------|---------------------------------| 
|---------------------------------|---------------------------------| 
|---------------------------------|---------------------------------| 
|---------------------------------|---------------------------------| 
 
 
  gtr 1                        Rhy. Fig. 7 
|----------------------------||-0-------X---0-----------0---------------| 
|----------------------------||-1-------X---3-----------0---------------| 
|----------------------------||-0-------X---0-----------0---------------| 
|----------------------------||-2-------X---4-----------2---------------| 
|----------------------------||-3-------X---5-----------2---------------| 
|----------------------------||-------------------------0---------------| 
                    And if we   tell you the name of the game, 
 
 
|-0---------------------0--0--|-----0---0-------2---2---2---2-------2---| 
|-1---------------------1--1--|-----1---1-------3---3---3---3-------3---| 
|-0---------------------0--0--|-----0---0-------2---2---2---2-------2---| 
|-2---------------------2--2--|-----2---2-------0---0---0---0-------0---| 
|-3---------------------3--3--|-----3---3-------------------------------| 
|-----------------------------|-----------------------------------------| 
  boy,                              we  call it "riding the gra  -  vy  
 
 
|---------------------------------|---------------------------------| 
|-0-------------------------------|---------------------------------| 
|-0-------------------------------|---------------------------------| 
|-0-------------------------------|---------------------------------| 
|-2-------------------------------|---------------------5---5-------| 
|-3-------------------------------|-------------3--/7---------------| 
  train." 
 
 
|---------------------------------|---------------------------------| 
|-------------------------X-------|---------------------X---5------| 
|-------------------------X---5---|-5-----------5-------X---5------| 
|----5--------------------X---5---|-5-----------5-------X---5------| 
|(5)H7--------------------X-------|-5H7-----7-----------------------| 
|---------------------------------|---------------------------------| 
  
 
                                                     end Rhy. Fig. 7 
|---------------------------------|-3---2-----------2---1-----------|| 
|-0-------------------------------|-3---2-----------2---1-----------|| 
|-0---------------0---------------|-4---3-----------3---2-----------|| 
|-0---------------0---------------|-5---4-----------4---3---X-X-X--|| 
|-2---------------2---------------|-5---4-----------4---3---X-X-X--|| 
|-3-------3-------3---------------|-3---2-----------2---1---X-X-X--|| 
 
 
  w/Rhy. Fig. 1 (4x) 
|---------------------------------|---------------------------------| 
|---------------------------------|---------------------------------| 
 
 
  gtr 2 
|------------------------------------------------|---------------------|| 
|-------------------------------X15B(17)R(15)P12-|15B(17)~~~~~---------|| 
|------------------------------------------------|---------------------|| 
|------------------------------------------------|---------------------|| 
|------------------------------------------------|---------------------|| 
|------------------------------------------------|---------------------|| 
                                                                  We're__ 
 
 
|---------------------------------|-------------------------------------| 
|---------------------------------|-------------------------------------| 
|---------------------------------|---------------------(2)B(4)R(2)P0---| 
|---------------------------------|-------------------------------------| 
|---------------------------------|-------------------------------------| 
|---------------------------------|-------------------------------------| 
_____ just       knocked out.                                       We  
 
 
|---------------------------------|-------------------------------------| 
|---------------------------------|-------------------------------------| 
|---------------------------------|------2B(4)R(2)B(4)R(2)P0-2B(4)------| 
|---------------------------------|-------------------------------------| 
|---------------------------------|-------------------------------------| 
|---------------------------------|-------------------------------------| 
  heard about the  sell - out.                                    You've  
 
 w/Rhy. Fig. 3                     w/Ryh. Fig. 6 
|---------------------------------|---------------------------------| 
|---------------------------------|---------------------------------| 
  gotta get an album out, you       owe it to the people.      We're 
 
                                   w/Rhy. Fig. 1 (4x) 
|---------------------------------|-------------------------------------| 
|---------------------------------|-----------15------------------------| 
|---------------------------------|------(14)B(16)-----------R(14)------| 
|---------------------------------|-------------------------------------| 
|---------------------------------|-------------------------------------| 
|---------------------------------|-------------------------------------| 
  so  happy, we can hard - ly       count. 
 
 
|---------------------------------|---------------------------------| 
|---------------------------------|---------------------------------| 
 
 
 
|---------------------------------|---------------------------------| 
|---------------------------------|---------------------------------| 
                                    Ev'rybody else is just green_____ 
 
 
|------------------------^--^-----|---------------------------------| 
|--------------------(12)/1412---|---------------------------------| 
|--------------------(12)/1412---|---------------------------------| 
|---------------------------------|---------------------------------| 
|---------------------------------|---------------------------------| 
|---------------------------------|---------------------------------| 
_________________.            Have_____ you seen the chart? 
 
                                   w/Rhy. Fig.3  
|---------------------------------|---------------------------------| 
|---------------------------------|---------------------------------| 
                      It's    a     helluva     start,  it could be  
 
 w/Rhy. Fig. 6 
|---------------------------------|---------------------------------| 
|---------------------------------|---------------------------------| 
  made into a  monster,      if we  all     pull  together  as  a 
 
 w/Rhy. Fig. 1 (2x) 
|---------------------------------|--------------------------------------| 
|---------------------------------|--------------------------------------| 
|---------------------------------|----------------------(2)B(4)R(2)P0---| 
|---------------------------------|--------------------------------------| 
|---------------------------------|--------------------------------------| 
|---------------------------------|--------------------------------------| 
  team. 
 
 
|---------------------------------|---------------------------------|| 
|---------------------------------|---------------------------------|| 
                                                        And  if  we 
 
 w/Rhy. Fig. 7 
|-----------------------------------------|-----------------------------| 
|-----------------------------------------|-----------------------------| 
  tell you the name   of the game,          boy, 
 
                                           gtr 1 begins slight ad lib 
|-----------------------------------------|-----------------------------| 
|-----------------------------------------|-----------------------------| 
      we  call it "riding the gra  -  vy    train." 
 
 
|---------------------------------|---------------------------------| 
|---------------------------------|---------------------------------| 
 
 
 
|---------------------------------|---------------------------------| 
|---------------------------------|---------------------------------| 
 
 
                                    w/Rhy. Fig. 1 (7 1/2x) 
|---------------------------------||---------------------------------| 
|---------------------15B(17)-----||-----------------~~~~~~~~~~~~~~~~| 
|---------------------------------||---------------------------------| 
|---------------------------------||---------------------------------| 
|---------------------------------||---------------------------------| 
|---------------------------------||---------------------------------| 
 
 
 
|-----------------------------------|-----------------------------------| 
|-----15B(17)---15----12------------|-----------------------------------| 
|-----------------------(14)B(16)---|--(12)B(14)R(12)~~~~~~~~~~~~~~~~~~~| 
|-----------------------------------|-----------------------------------| 
|-----------------------------------|-----------------------------------| 
|-----------------------------------|-----------------------------------| 
 
 
 
|------------------------12H15P12-|-15~~~~~~-------17B(19)---(19)---| 
|---15B(17)~~~~~~~----------------|---------------------------------| 
|---------------------------------|---------------------------------| 
|---------------------------------|---------------------------------| 
|---------------------------------|---------------------------------| 
|---------------------------------|---------------------------------| 
 
 
 
|-(19)------15B(17)-R(15)-15--14--|-14--------------------------------| 
|---------------------------------|----15~~15~~12-15-----15B(17)-R(15)| 
|---------------------------------|-----------------------------------| 
|---------------------------------|-----------------------------------| 
|---------------------------------|-----------------------------------| 
|---------------------------------|-----------------------------------| 
 
 
 
|---------------------------------|---------------------------------| 
|P12------------------------------|-------------------14-14--14-14--| 
|-------(14)B(15)R(14)----14--12B-|--------12---------14-14--14-14--| 
|---------------------------------|---14----------------------------| 
|---------------------------------|---------------------------------| 
|---------------------------------|---------------------------------| 
 
 
 
|---------------------------------|-------------------------------| 
|-14--12--------------------------|----12--12--12---12---12-------| 
|-14--12--------------------------|----12--12--12---12---12-------| 
|---------X-14--------^--------^--|--------------12---12--(12)H14~| 
|---------X------14P1210-12-12/14|-------------------------------| 
|---------------------------------|-------------------------------| 
 
 
 
|---------------12----12---|---------12-------------12-12-------12------| 
|-----0----12-12---12-12---|-15B(17)---15B(17)R(15)------15B(16)--------| 
|--------------------------|-----------------------------15B(16)--------| 
|~~~~~---------------------|--------------------------------------------| 
|--------------------------|--------------------------------------------| 
|--------------------------|--------------------------------------------| 
 
 
 
|----------12-15-15-------15B(17)-|--R-(15)-----14--14--------------| 
|---15B(17)------------12---------|-------------------15----15~~~~~~| 
|---------------------------------|---------------------------------| 
|---------------------------------|---------------------------------| 
|---------------------------------|---------------------------------| 
|---------------------------------|---------------------------------| 
 
 
 w/Rhy. Fig. 4 
|-----19B(21)------R-(19)-19--18--|-17--16--------------------------| 
|-----19B(20)------R-(19)---------|-------17-17~~~~~17B(19)~~~~~~~~~| 
|---------------------------------|---------------------------------| 
|---------------------------------|---------------------------------| 
|---------------------------------|---------------------------------| 
|---------------------------------|---------------------------------| 
 
 
 
|-------------12-12-------------------|---------------------------------| 
|---------------------15--------------|---------------------------------| 
|-----14B(16)-----------(14)B(16)R(14)|-----14--12----------------------| 
|-------------------------------------|-----------------14-------^------| 
|-------------------------------------|------------------------1412-10-| 
|-------------------------------------|---------------------------------| 
 
 
                                   w/Rhy. Fig. 1 
|---------------------------------|---------------------------------| 
|-----------------12--X-12--X-12--|-X-12--X-12--X-12--X-12X-X-12--X-| 
|-----------------12--X-12--X-12--|-X-12--X-12--X-12--X-12X-X-12--X-| 
|----^----------------------------|---------------------------------| 
|(12)/14~~~~~~~~~~----------------|---------------------------------| 
|---------------------------------|---------------------------------| 
 
 
                                       w/Rhy. Fig. 3 
|-------------------------------------|-----------------------12--------| 
|-12--X-12--X-12X-X-12X-X-12/14-14----|-1412-12--X-12--X-12----12--X---| 
|-12--X-12--X-12X-X-12X-X-12/14-14----|-1412-12--X-12--X-12----12--X---| 
|-------------------------------------|---------------------------------| 
|-------------------------------------|---------------------------------| 
|-------------------------------------|---------------------------------| 
 
 
 w/Rhy. Fig. 5 
|----------12-------------------------|-----------------------------12--| 
|--------12---15----------------------|---------12--------15B(17)-------| 
|-14B(16)-------(14)B(16)R(14)--14-12B|---------12----------------------| 
|-------------------------------------|-14------------------------------| 
|-------------------------------------|---------------------------------| 
|-------------------------------------|---------------------------------| 
 
 
 
|---------------------------12----|-15P-14--15---------14---(14)B(15)---| 
|(15)B(17)~~~~~~~~---15B(17)------|-------------------------------------| 
|---------------------------------|-------------------------------------| 
|---------------------------------|-------------------------------------| 
|---------------------------------|-------------------------------------| 
|---------------------------------|-------------------------------------| 
 
 
 
|-R(14)---------------12----------|----------------------------------| 
|---------------------------15----|15B(17)--15-----------------------| 
|---------------------------------|-------------14B(16)--14--12~~~~~~| 
|---------------------------------|----------------------------------| 
|---------------------------------|----------------------------------| 
|---------------------------------|----------------------------------| 
 
 
 
|-----------------------------------------------------------------------| 
|-----------------------------------------------------------------------| 
|~~~~~~~~~~~~~~~~~~~~~~~~~~~~14B(16)---R(14)B(16)---R(14)B(16)R(14)P12--| 
|-----------------------------------------------------------------------| 
|-----------------------------------------------------------------------| 
|-----------------------------------------------------------------------| 
 
 
 w/Rhy. Fig. 1 (3x) 
|---------------------------------|---------------------------------| 
|---------------------------------|---------12------X---12--X-12X---| 
|-14--12--------------------------|---------12------X---12--X-12X---| 
|---------14~~~~~~~~~~~~~~~~~~~~~~|~~~~~~~~~------------------------| 
|---------------------------------|---------------------------------| 
|---------------------------------|---------------------------------| 
 
 
 
|---------------------------------|-12------------------------------| 
|-14----12B-----------------------|-----15--------------------------| 
|-14----12B---------------14B(16)-|---------14B(16)--14-----14--12--| 
|-14----12B-----------------------|---------------------------------| 
|---------------------------------|---------------------------------| 
|---------------------------------|---------------------------------| 
 
 
 
|-----------------------------12-|-----------------------17B(19)--R(17)-| 
|--------------------------12----|---15B(17)~~~~~~~~~~15----------------| 
|---------12--------14B(16)------|--------------------------------------| 
|-X-14~~~~-----------------------|--------------------------------------| 
|--------------------------------|--------------------------------------| 
|--------------------------------|--------------------------------------| 
 
 
 w/Rhy. Fig. 3 
|B(19)---R(17)-B(19)---R(17)-17B(19)---R(17)-B(19)--R(18)-(18)--R(17)-| 
|---------------------------------------------------------------------| 
|---------------------------------------------------------------------| 
|---------------------------------------------------------------------| 
|---------------------------------------------------------------------| 
|---------------------------------------------------------------------| 
 
 
 w/Rhy. Fig. 4 
|-15------------------------------|---------------------------------| 
|---17---17~~~~~~~~~~~~17B(20)~~~~|~~~~~~~~~~~~~17B(20)~~~~~~~~~~~~~| 
|---------------------------------|---------------------------------| 
|---------------------------------|---------------------------------| 
|---------------------------------|---------------------------------| 
|---------------------------------|---------------------------------| 
 
 
 
|--------------------------------------------|--------------------------| 
|R(17)-17B(20)---(20)-(20)----R(17)-17B(20)~~|~~~~-17B(20)--(20)--(20)--| 
|--------------------------------------------|--------------------------| 
|--------------------------------------------|--------------------------| 
|--------------------------------------------|--------------------------| 
|--------------------------------------------|--------------------------| 
 
 
                                   w/Rhy. Fig. 1 
|---------------------------------|---------------12----------------| 
|-(20)R(17)(15)H17~~~~~~~--^------|-------------X-12--X-12--X-12----| 
|------------------------1412-14B|(16)--R-(14)-X-----X-12--X-12--12| 
|---------------------------------|---------------------------------| 
|---------------------------------|---------------------------------| 
|---------------------------------|---------------------------------| 
 
 
                                       w/Rhy. Fig. 3 
|-------12----------12---------^------|---^-----------------------------| 
|-12----12X-X-12X-X-12-12----12/14----|-1412-12----12--X-12X-X-12------| 
|-12--12--X-X-12X-X----12-12-12/14----|-1412-12----12--X-12X-X-12--12--| 
|-------------------------------------|---------------------------------| 
|-------------------------------------|---------------------------------| 
|-------------------------------------|---------------------------------| 
 
 
 w/Rhy. Fig. 5 
|---------------------------------------------------------------------| 
|-------------12-----17P12-15P12--------------------------------------| 
|-14B(16)----------------------------14B(16)-----14-----12B(14)-------| 
|---------------------------------------------------------------------| 
|---------------------------------------------------------------------| 
|---------------------------------------------------------------------| 
 
 
 
|---------------------------------|---------------------------------| 
|---------------------------------|---------------------------------| 
|-12~~~~~~~~~~~~~~~~~~11----------|---------------------------11----| 
|---------------------------12----|-12~~~~~~~~~~~~~~~~~~10----------| 
|---------------------------------|---------------------------------| 
|---------------------------------|---------------------------------| 
 
 
                                   fade 
|---------------------------------|---------------------------------| 
|---------------------------------|---------------------------------| 
|-11B(12)R(11)--------------------|----^----------------------------| 
|--------------10~~~~~~~~~~~------|(10)/12~~~~~~~~~~~~~~~~~~X-------| 
|---------------------------------|---------------------------------| 
|---------------------------------|---------------------------------| 
 
 
                                 fade to right channel 
|---------------------------|-----------------------------------------| 
|-15B(17)-R-(15)------------|-----------------------------------------| 
|------------------14B(16)--|-(16)R(14)P12--14B(16)--(16)R(14)P12-----| 
|---------------------------|-------------------------------------14~~| 
|---------------------------|-----------------------------------------| 
|---------------------------|-----------------------------------------| 
 
 
 w/Rhy. Fig. 1 (2x) 
|---------------------------------|---------------------15P12-15----| 
|----------------------15B(17)----|---------------------------------| 
|---------------------------------|---------------------------------| 
|~~~~~~~~~~~~~~~~~~~~~~-----------|---------------------------------| 
|---------------------------------|---------------------------------| 
|---------------------------------|---------------------------------| 
 
 
 
|-15B(17)--R--(15)----------------|------15---15---15---15---15B(17)---| 
|---------------------------------|------------------------------------| 
|---------------------------------|------------------------------------| 
|---------------------------------|------------------------------------| 
|---------------------------------|------------------------------------| 
|---------------------------------|------------------------------------| 
 
  gtr 2 
     radio sound effects approx. 16 sec. 
|--15-----------------------------------|| 
|---------------------------------------|| 
|---------------------------------------|| 
|---------------------------------------|| 
|---------------------------------------|| 
|---------------------------------------|| 
| 
| gtr 1 
|---------------------------------------|| 
|---------------------------------------|| 
|---------------------------------------|| 
|---------------------------------------|| 
|---------------------------------------|| 
|-0-------------------------------------|| 
 
 
_______________________________________________________ 
Contribuição: Carlos slash Batistini Neto([email protected]) 

	  

Full key step upFull key step up
Half key step upHalf key step up
Half key step downHalf key step down
Full key step downFull key step down
Search Paypal
auto scroll beats size up size down change color hide chords drawings
tab show chords e-chords YouTube Clip e-chords hide all tabs e-chords go to top tab