Pink Floyd

home > Pink Floyd

Goodbye Blue Sky Tab

Pink Floyd

Difficulty: AdvancedAdvanced

tuner correct add songbook print version text version save to e-mail
chordsukulelecavacokeyboardtabbassdrumsharmonicsflute Guitar Pro
chords

Goodbye Blue Sky

Year: 1979 - Album: Is There Anybody Out There: The Wall: Live 1980-81

(Roger Waters)

  		
Intro:  


e|-----------------------------------------------------------------|  
B|-----------------------------------------------------------------|  
G|-----------------------------------------------------------------|  
D|-----6---7--6---6----6---7--6---6-----6h7-6----6h7-6----6h7-6----|  
A|-------7------7--------7------7-----4--------4--------4--------4-|  
E|---0---------------0---------------------------------------------|  


e|-------7-----5----4----4--------------------------------|  
B|------9-----7----5----5---------------------------------|  
G|--------------------------------------------------------|  
D|-----9-----7----6------------6h7-6----6h7-6----6h7-6----|  
A|---------------------4----4---------4--------4--------4-|  
E|---0----------------------------------------------------|  

Verse:  

e|-------------------------------------------------------------------|  
B|---3-3-3-3--3-3-x-2--------3-3-3-3--3-3-x-2--------3-3-3-3-3-3-x-2-|  
G|---4-4-4-4--4-4-x-2--------4-4-4-4--4-4-x-2--------4-4-4-4-4-4-x-2-|  
D|---4-4-4-4--4-4-x-2--------4-4-4-4--4-4-x-2--------4-4-4-4-4-4-x-2-|  
A|-2-------2----2-x-2--2-2-2-------2----2-x-2--2-2-2-------2---2-x-2-|  
E|---------------------------------------------------------------x---|  

e|---------0----------------------------|  
B|---3--4-------------------------------|  
G|--------------------------------------|  
D|-2---------6h7-6----6h7-6-----6h7-6---|  
A|------------------7--------7--------7-|  
E|---------0--------------------------0-|  

Intro:  



e|-----------------------------------------------------------------|  
B|-----------------------------------------------------------------|  
G|-----------------------------------------------------------------|  
D|-----6---7--6---6----6---7--6---6-----6h7-6----6h7-6----6h7-6----|  
A|-------7------7--------7------7-----4--------4--------4--------4-|  
E|---0---------------0---------------------------------------------|  


e|-------7-----5----4----4--------------------------------|  
B|------9-----7----5----5---------------------------------|  
G|--------------------------------------------------------|  
D|-----9-----7----6------------6h7-6----6h7-6----6h7-6----|  
A|---------------------4----4---------4--------4--------4-|  
E|---0----------------------------------------------------|  

Verse 2:  

e|-------------------------------------------------------------|  
B|---3-3-3-3---3-3--2-------3-3-3-3---3-3--2-------3-3-3---3-3-|  
G|---4-4-4-4---4-4--2-------4-4-4-4---4-4--2-------4-4-4---4-4-|  
D|---4-4-4-4-4-4-4--2-------4-4-4-4-4-4-4--2-------4-4-4-4-4-4-|  
A|-2-------2-----2--2--2--2-------2-----2--2--2--2-----2-----2-|  
E|-------------------------------------------------------------|  

e|-------------------------------------------------------------------|  
B|-2-2-2-2-----------------------------------------------------------|  
G|----------4-4-4-4--2-2-2-2-----------------------------------------|  
D|----------------------------5-5-5-5--4-4-4-4--2-2-2-2----------4-4-|  
A|-------2--------2--------2--------2--------2--------2--5-5-4-2-----|  
E|-------------------------------------------------------------------|  

Chorus:  

e|-------7--5----9p7----------7--5----9p7----------------------------|  
B|-----9----7--------10-9-----9--7--------10-9--5\3-----------/5-3---|  
G|----------------------------------------------4\2-----------/4-2---|  
D|-------------------------------------------------------------------|  
A|-------------------------------------------------------------------|  
E|---0------0--0-0--------0-0----0--0--------0-------0-0-0-0-------0-|  

e|-------------------------------------------|  
B|-------------------------------------------|  
G|-------------------------------------------|  
D|---2p0---------6---7--6---7---6---7--6---7-|  
A|-------2-0-------7------7-------7------7---|  
E|-----------3p0--------------0--------------|  


	  

Search Paypal
auto scroll beats size up size down change color hide chords drawings
tab show chords e-chords YouTube Clip e-chords hide all tabs e-chords go to top tab