Pink Floyd

home > Pink Floyd

Echoes Tab

Pink Floyd

Difficulty: ExpertExpert

by miss%2Dtyler

tuner correct add songbook print version text version save to e-mail
chordsukulelecavacokeyboardtabbassdrumsharmonicsflute Guitar Pro
chords

Echoes

Year: 1971 - Album: Echoes: The Best Of Pink Floyd

  		Echoes  
Pink Floyd : David Gilmour 
Transcribed By Steve Tarshis 
 
Symbols: 
 
 
	        H       hammer-on 
		P	pull-off   
                >       accented strum/pick 
		B	bend			 
		R	reverse bend 
		UB	unison bend		 
		S	slide (slide upto note = \) 
		^	downstroke		 
		v	upstroke 
		*	staccato		 
		~	vibrato 
		x	muted note 
 
 
   Slowly & Softly 
  
   F#mi 
         B                                 B 
E ||---12-(14)------------------------|--12-(14)-------------------------| 
B ||----------------------------------|----------------------------------| 
G ||----------------------------------|----------------------------------| 
D ||----------------------------------|----------------------------------| 
A ||----------------------------------|----------------------------------| 
E ||----------------------------------|----------------------------------| 
  
  
   C#mi	 
 
E ||-----B----------------------------|----B-----------------------------| 
B ||---12-(14)--------------------12--|--12-(14)-------------------------| 
G ||----------------------------------|----------------------------------| 
D ||----------------------------------|----------------------------------| 
A ||----------------------------------|----------------------------------| 
E ||----------------------------------|----------------------------------| 
 
 
   F#mi 
         B                                 B 
E ||---12-(14)------------------12--9-|--12-(14)------------12-----------| 
B ||----------------------------------|-----------------------------12---| 
G ||----------------------------------|----------------------------------| 
D ||----------------------------------|----------------------------------| 
A ||----------------------------------|----------------------------------| 
E ||----------------------------------|----------------------------------| 
 
 
   C#mi 
 
E ||-----B----------------------------|----------------------------------| 
B ||---12-(14)---------12---B--R------|---B--------------B--R------------| 
G ||----------------------11(13)11--9-|-11-(13)--------11(13)11--9-------| 
D ||----------------------------------|------------------------------9---| 
A ||----------------------------------|----------------------------------| 
E ||----------------------------------|----------------------------------| 
 
 
   F#mi 
 
E ||----------------------------------|----------------------------------| 
B ||----------------------------------|---H----------B------------B------| 
G ||------------------------------9---|--9-11------11(13)-9--11-11(13)-9-| 
D ||--------------------7--9--11------|----------------------------------| 
A ||----------------------------------|----------------------------------| 
E ||----------------------------------|----------------------------------| 
 
    
   C#mi 
 
E ||---B------------------------------|---B------------------------------| 
B ||-11-(13)-----------------------9--|-12-(14)--------------------------| 
G ||-----------------------------9----|----------------------------------| 
D ||----------------------------------|----------------------------------| 
A ||----------------------------------|----------------------------------| 
E ||----------------------------------|----------------------------------| 
 
 
   Bbmi7                               A 
        B                                 B                        B 
E ||--12-(13)-------------------------|-11-(12)------------------11-(12)-| 
B ||----------------------------------|----------------------------------| 
G ||----------------------------------|----------------------------------| 
D ||----------------------------------|----------------------------------| 
A ||----------------------------------|----------------------------------| 
E ||----------------------------------|----------------------------------| 
 
 
   G#sus4                              G# 
 
E ||--11------------------------------|-------------R--------------------| 
B ||----------------------------------|----------(14)13------------------| 
G ||----------------------------------|-----------------13---S-----------| 
D ||----------------------------------|--------------------13\11-10------| 
A ||----------------------------------|-----------------------------11---| 
E ||----------------------------------|----------------------------------| 
 
 
   C#mi                                  
 
E ||----------------------------------|----------------------------------| 
B ||----------------------------------|----------------------P-----------| 
G ||------------11(13)11-9--11-11(13)~|~~~~~~~~---------11--9-8----------| 
D ||-11-------------------------------|---------------------------11-9---| 
A ||----------------------------------|----------------------------------| 
E ||----------------------------------|----------------------------------| 
 
 
 
 
E ||----------------------------------|-------------------9---------B----| 
B ||----------------------------------|--------------B------9--12-12(14)-| 
G ||----------------------------------|----------9-11(13)----------------| 
D ||-11-------------------------------|------11--------------------------| 
A ||----------------------------------|----------------------------------| 
E ||----------------------------------|----------------------------------| 
 
 
 
 
 
 
   F#mi                                 
 
E ||--------------------------P-------|----------------------------------| 
B ||------------------------10-9------|---S--S-------B------------B------| 
G ||-----------------------------11-9-|-11/13\11---11(13)-9--11-11(13)-9-| 
D ||----------------------------------|----------------------------------| 
A ||----------------------------------|----------------------------------| 
E ||----------------------------------|----------------------------------| 
 
 
   C#mi 
 
E ||-------------------------B--------|------B---------------------------| 
B ||--------------B-----12-12(14)-----|-12-12(14)------------------------| 
G ||------------11(13)------------9---|----------------------------------| 
D ||-11-------------------------------|----------------------------------| 
A ||----------------------------------|----------------------------------| 
E ||----------------------------------|----------------------------------| 
 
 
 
   Bbmi7                               A 
        B                                 B                        B 
E ||--12-(13)-------------------------|-11-(12)------------------11-(12)-| 
B ||----------------------------------|----------------------------------| 
G ||----------------------------------|----------------------------------| 
D ||----------------------------------|----------------------------------| 
A ||----------------------------------|----------------------------------| 
E ||----------------------------------|----------------------------------| 
 
 
   G#sus4                              G# 
 
E ||--11------------------------------|-------------R--------------------| 
B ||----------------------------------|----------(14)13------------------| 
G ||----------------------------------|-----------------13---S-----------| 
D ||----------------------------------|--------------------13\11-10------| 
A ||----------------------------------|-----------------------------11---| 
E ||----------------------------------|----------------------------------| 
 
 
 
   C#mi 
 
E ||----------------------------------|| 
B ||----------------------------------|| 
G ||----------------------------------|| 
D ||-11-------------------------------|| 
A ||----------------------------------|| 
E ||----------------------------------|| 
 

	  

Search Paypal
auto scroll beats size up size down change color hide chords drawings
tab show chords e-chords YouTube Clip e-chords hide all tabs e-chords go to top tab