Pink Floyd

home > Pink Floyd

Breathe Tab

Pink Floyd

Difficulty: AdvancedAdvanced

by mary%5Fjane%5F89

tuner correct add songbook print version text version save to e-mail
chordsukulelecavacokeyboardtabbassdrummharmonicsflute Guitar Pro
chords

Breathe

Key:  Em More
Breathe Key BmBm
Breathe Key CmCm
Breathe Key C#mC#m
Breathe Key DmDm(one step down)
Breathe Key D#mD#m(half step down)
Breathe Key EmEm(original key)
Breathe Key FmFm(half step up)
Breathe Key F#mF#m(one step up)
Breathe Key GmGm
Breathe Key G#mG#m
Breathe Key AmAm
Breathe Key A#mA#m
  		Breathe - Pink Floyd   by Mary Jane Schilling. 

INTRO 


-----0----0--------- ----------------------- ----------------------------------- 
-----0------0------- --------2--------3--2-- -----------2------3---------2------ 
-----0--0----------- ------2------2--------- ---------2----------2---------2---- 
-----2-------------- ----2------------------ -------2--------2-----2---------2-- 
-----2-------------- -0~-------------------- ----0~----------------------------- 
-0~--0-------------- ----------------------- ----------------------------------- 
      fig 0.               fig 1.                        fig 2. 

--------------5---------7-------5--3--- 
----------------0---------0------------ 
------------------6---------6---------- 
--------------------------------------- 
-0-----7/9----------------------------- 
--------------------------------------- 
               fig 3. 

----------9---------7------5-3----- 
------------0---------0------------ 
-----7/9------9---------7---------- 
----------------------------------- 
-0--------------------------------- 
----------------------------------- 
           fig 4. 

--0----0-------2------2---------1-------1------- 
--0------0-----3--------3-------1----------1---- 
--0--0---------4----4-----------2-----2--------- 
--2------------4----------------3--------------- 
--3------------2----------------3--------------- 
--0------------2----------------1--------------- 
                 fig 5. 


G         F           *        E7 
                    --X-- 
                    --4-- 
                    --2-- 
                    --3-- 
                    --x-- 
                    --x-- 


Em7 (fig 0 but with Em7 chord)                      
Breathe,  
               A (fig.1) 
breathe in the air  
  
Em (0)              A(1) 
Don't be afraid to care  
  
Em (0)                A (2) 
Leave but don't leave me  
  
Em (0)                      A (1) 
Look around and chose your own ground  
  
    C  
For long you live and high you fly  
  
    Bm  
And smiles you'll give and tears you'll cry  
  
    F  
And all you touch and all you see  
  
   G                  F    *  
Is all your life will ever be  

  


Em7(0)          A(2) 
Run, run rabbit run  

Em(0)                    A(3) 
Dig that hole, forget the sun,  

Em(0)                        A(2) 
And when at last the work is done  

Em(0)                                  A(2) 
Don't sit down it's time to start another one  



     C 
For long you live and high you fly                         do it like fig 5. 

     Bm 
But only if you ride the tide  

      F 
And balanced on the biggest wave  

     G               F     * 
You race toward an early grave.  
  




	  

Search Paypal
auto scroll beats size up size down change color hide chords drawings
tab show chords e-chords YouTube Clip e-chords hide all tabs e-chords go to top tab