Pinback

Lyon Tab

Pinback

Difficulty: nolevelnolevel

by hugo%5Frodrigues

tuner correct add songbook print version text version save to e-mail
chordsukulelecavacokeyboardtabbassdrumsharmonicsflute Guitar Pro
close

there isn't a video lesson for this song

request
chords

Lyon

  		Intro 

e|--5---------0--4----------2------0----2---5----| 
B|--5-5-----0----5----------2-2------0--3---7----| 
G|--6---6--------6----------2---2-------4---7----| x2 
D|--7------------6----------4-----------4---7----| 
A|--7------------4----------4-----------2---5----| 
E|--5-----------------------2--------------------| 


verse 1 

e|--5---------0--4----------2------0----2---5----| 
B|--5-5-----0----5----------2-2------0--3---7----| 
G|--6---6--------6----------2---2-------4---7----| x6 
D|--7------------6----------4-----------4---7----| 
A|--7------------4----------4-----------2---5----| 
E|--5-----------------------2--------------------| 

Chorus 

e|------------------------------------------------------------| 
B|------------------------------------------------------------| 
G|-----------------------------7-7-6-6-7-6-4\2-----2----4\0---| x2 
D|--7-7-7-6-7-6-4-0----3-4-6---7-7-7-7----------4----2--------| 
A|------------------2/4-4--4---5-5-5-6------------------------| 
E|--5-5-5-4-5-4-2-0-------------------------------------------| 

verse 2 

e|--5---------0--4----------2------0----2---5----| 
B|--5-5-----0----5----------2-2------0--3---7----| 
G|--6---6--------6----------2---2-------4---7----| x4 
D|--7------------6----------4-----------4---7----| 
A|--7------------4----------4-----------2---5----| 
E|--5-----------------------2--------------------| 

Chorus 

e|------------------------------------------------------------| 
B|------------------------------------------------------------| 
G|-----------------------------7-7-6-6-7-6-4\2-----2----4\0---| x4 
D|--7-7-7-6-7-6-4-0----3-4-6---7-7-7-7----------4----2--------| 
A|------------------2/4-4--4---5-5-5-6------------------------| 
E|--5-5-5-4-5-4-2-0-------------------------------------------| 

Outro 

e|---|----------------------------------------------| 
B|---|----------------------------------------------| 
G|---|---------0----------0------------0------------| x16 
D|---|--9---9--------4--4---4\2-----2----2----------| 
A|---|7---7--------2--------------0--------3--------| 
E|--8|-----------3--------------1------------3/8----| 


************************************ 

| /   Slide up 
| \   Slide down 

************************************ 
	  

Search Paypal
auto scroll beats size up size down change color hide chords drawings
tab show chords e-chords YouTube Clip e-chords hide all tabs e-chords go to top tab

share with facebook