PIB em Trindade

Unção de Deus

PIB em Trindade

tabs Intermediate intermediate

by  CAIOMAX

save to print version add songbook text version e-mail correct tuner
chordsukulelecavacokeyboardtabbassdrumsharmonicaflute Guitar Pro
close

there isn't a video lesson for this song

chords

Unção de Deus

	  		Na introdução e varias partes da música: 

E|------------------------------------------------| 
A|------------------------------------------------| 
D|------------------------------------------------| 
G|--9-11-9-8-9-8/6---9-11-9-8-----6------------9--| 
B|----------------------------12------10-9-7------| 
E|------------------------------------------------| 


riff do coro: 

1°vez 
B|--5-4--2--0----5-4--0--7----5-0-7----| 
E|-------------------------------------| 

2°vez 
B|--5-4--2--0----5-4--0--7----5-0-4----| 
E|-------------------------------------| 

Só ouvindo bem o coro que vc consegue pegar 
é meio rápido. 

		  

See also:

tabs Oficina G3 - Espelhos Mágicos (intro acústico) tabs Atmosfera de Adoração - Aleluia tabs Oficina G3 - o tempo (ver. 2) tabs Diante do Trono - Me Ama tabs Oficina G3 - Deus Eterno tabs Novo Som - Acredita
e-chords

Other versions:

tabs PIB em Trindade - Unção de Deus
auto scroll beats size up size down change color hide chords drawings
tab show chords e-chords YouTube Clip e-chords hide all tabs e-chords go to top tab

share