Phoenix

Everything is everything

Phoenix

tabs Expert expert

by  EUROPEU

save to print version add songbook text version e-mail correct tuner
chordsukulelecavacokeyboardtabbassdrumsharmonicaflute Guitar Pro
close

there isn't a video lesson for this song

chords

Everything is everything

	  		Note: The guitar is played with a capo on the 4th fret, but for 
 those  people  who  doesn't own a capo  and  want to try it out 
 anyway,  I wrote the notes  according to the  "original" tuning 
 i.e. EBGDAE. "( )" indicates fill-in notes. Good Luck! /Bandola 
  
 
   Verse: 
  
      F#m               C#m        /Bb                  A   B 
   E|--5--5---5--5-(55)-4--4--4---------------------------------| 
   B|--7--7---7--7-(77)-5--5--5----5--5--5--(45)--5--5--5-5-7-7-| 
   G|--6--6---6--6-(66)-6--6--6----6--6--6--(66)--6--6--6-6-8-8-| 
   D|------------------------------6--6--6--(66)--6--6--7-7-9-9-| 
   A|-----------------------------------------------------------| 
   E|---------------------------------------------6--6--5-5-7-7-| 
  
   (Bass) 
      F#m             C#m          /Bb                  A   B 
   G|-----------------------------------------------------------| 
   D|-----------------------------------------------------------| 
   A|------------5--(5)4--4--4-(2)-1--1--1--------1--1--0-0-2-2-| 
   E|--2--2---2-------------------------------------------------| 
  
 
   Chorus: 
  
      F#m               C#m        A                      B 
   E|--5--5---5--5-(55)-4--4--4---------------------------------| 
   B|--7--7---7--7-(77)-5--5--5----5--5--5---55-----5--5--7---7-| 
   G|--6--6---6--6-(66)-6--6--6----6--6--6---66-----6--6--8---8-| 
   D|------------------------------7--7--7---77-----7--7--9---9-| 
   A|-----------------------------------------------------------| 
   E|------------------------------5--5--5---55-----5--5--7---7-| 
  
   (Bass) 
      F#m             C#m          A                      B 
   G|-----------------------------------------------------------| 
   D|-----------------------------------------------------------| 
   A|------------------4--4--4--2--0--0--0---0------0--0--2---2-| 
   E|--2--2---2--4--(4)-----------------------------------------| 
  
  
  
 

		  

Full key step upFull key step up
Half key step upHalf key step up
Half key step downHalf key step down
Full key step downFull key step down
hide glossary

See also:

tabs Panic! At The Disco - This Is Halloween tabs JerryC - Canon rock tabs Rihanna - Shut Up And Drive tabs Lindsey Stirling - Crystallize tabs Panic! At The Disco - Only difference between martyrdom and suicide is press coverage tabs Augustana - Boston
e-chords

Other versions:

tabs Phoenix - Everything is everything
auto scroll beats size up size down change color hide chords drawings
tab show chords e-chords YouTube Clip e-chords hide all tabs e-chords go to top tab

share