Pharmacist

Fortune Teller

Pharmacist

tabs

by  IRONPOWER4EVER

save to print version add songbook text version e-mail correct tuner
chordsukulelecavacokeyboardtabbassdrumsharmonicaflute Guitar Pro
close

there isn't a video lesson for this song

chords

Fortune Teller

	  		Intro  
G#m B F# G#m 

Verse x4 
e|---------------------------------------------------------------------------| 
B|---------------------------------------------------------------------------| 
G|---------------------------------------------------------------------------| 
D|-6-6-6-6-6-6-6-6-9-9-9-9-9-9-9-9-4-4-4-4-4-4-4-4-6-6-6-6-6-6-6-6-----------| 
A|---------------------------------------------------------------------------| 
E|---------------------------------------------------------------------------| 
PM ............................................................... 

Chorus 
e|---------------------------------------------------------------------------| 
B|---------------------------------------------------------------------------| 
G|----------------4-4-4-4--4-4-4-8-8-8-6--6-6-6-9-9-9-9-9-4-4-8--------------| 
D|-6-6-6-6--6-6-6-4-4-4-4--4-4-4---------------------------------------------| 
A|-6-6-6-6--6-6-6-2-2-2-2--2-2-2-6-6-6-4--4-4-4-7-7-7-7-7-2-2-6--------------| 
E|-4-4-4-4--4-4-4------------------------------------------------------------| 

e|---------------------------------------------------------------------------| 
B|---------------------------------------------------------------------------| 
G|-8--4--8-8-8-6--6-6-6-9-9-9-9-9-9-8-6--------------------------------------| 
D|---------------------------------------------------------------------------| 
A|-6--2--6-6-6-4--4-4-4-7-7-7-7-7-7-6-4--------------------------------------| 
E|---------------------------------------------------------------------------| 
   x8 x8 

e|------------------------------| 
B|------------------------------| 
G|----4-------------------------| 
D|-6--4--4--2-------------------| 
A|-6--2--4--2-------------------| 
E|-4-----2--0-------------------| 
   x8 x8 x8 x8  

e|------------------------------------------------------------------| 
B|------------------------------------------------------------------| 
G|----------------4-4-4-4--4-4-4-8-8-8-6--6-6-6-6-6-6-6-6-6---------| 
D|-6-6-6-6--6-6-6-4-4-4-4--4-4-4------------------------------------| 
A|-6-6-6-6--6-6-6-2-2-2-2--2-2-2-6-6-6-4--4-4-4-4-4-4-4-4-4---------| 
E|-4-4-4-4--4-4-4-------------------------------------------7-6-----| 


Verse x2 
Then 
e|---------------------------------------------------------------------------| 
B|---------------------------------------------------------------------------| 
G|-------8----8---------11----11---------6----6---------8----8---------------| 
D|-6-6-6----6---6-9-9-9-----9----9-4-4-4----4---4-6-6-6----6---6-------------| 
A|---------------------------------------------------------------------------| 
E|---------------------------------------------------------------------------| 

Verse x1 

Chorus 

Solo 

Part 1 x2 
e|---------------------------------------------------------------------------| 
B|---------------------------------------------------------------------------| 
G|---------------------------------------------------------------------------| 
D|---------------------------------------------------------------------------| 
A|-7--2--6-6-6-4--4-4-4-4----------------------------------------------------| 
E|---------------------------------------------------------------------------| 
   x8 x8                x8 

Part 2 
e|---------------------------------------------------------------------------| 
B|---------------------------------------------------------------------------| 
G|-4/9-9-9-9--9-8--6--6-4--4-4--8--8-6--6-6---6--6-6--6----------------------| 
D|---------------------------------------------------------------------------| 
A|---------------------------------------------------------------------------| 
E|---------------------------------------------------------------------------| 

e|---------------------------------------------------------------------------| 
B|---------------------------------------------------------------------------| 
G|-9--9-9--9-8--6--6-4--4-4-4-8--8-6--6-6-6-6---4----------------------------| 
D|---------------------------------------------------------------------------| 
A|---------------------------------------------------------------------------| 
E|---------------------------------------------------------------------------| 
                                            x8 
Outro 
e|----------------| 
B|----------------| 
G|-11-13----------| 
D|----------------| 
A|-9--11----------| 
E|----------------| 
   x8 x8 

e|---------------------------------------------------------------------------| 
B|---------------------------------------------------------------------------| 
G|-------8----8---------11----11---------6----6---------8----8---------------| 
D|-6-6-6----6---6-9-9-9-----9----9-4-4-4----4---4-6-6-6----6---6-------------| 
A|---------------------------------------------------------------------------| 
E|---------------------------------------------------------------------------| 

e|-------------------------------------------------------------------| 
B|-------------------------------------------------------------------| 
G|-------8----8---------11----11---------6----6----------------------| 
D|-6-6-6----6---6-9-9-9-----9----9-4-4-4----4---4-4----6-------------| 
A|-------------------------------------------------------------------| 
E|-------------------------------------------------------------------| 

************************************ 

| PM  Palm mute 
| /   Slide up 
| x   Dead note 

************************************ 
		  

Full key step upFull key step up
Half key step upHalf key step up
Half key step downHalf key step down
Full key step downFull key step down
hide glossary

See also:

tabs Ira! - Poço de Sensibilidade (Solo - Acustico Mtv) tabs Deep Purple - Smoke On The Water tabs Deep Purple - Smoke on the water (intro) tabs Ira! - Eu Quero Sempre Mais (Com Pitty, intro) tabs Deep Purple - Smoke on the Water (ver. 2) tabs Deep Purple - Knocking At Your Back Door
e-chords

Other versions:

tabs Pharmacist - Fortune Teller
auto scroll beats size up size down change color hide chords drawings
tab show chords e-chords YouTube Clip e-chords hide all tabs e-chords go to top tab

share