PFM

Celebration

PFM

tabs Expert expert

by  ABELAMIN

save to print version add songbook text version e-mail correct tuner
chordsukulelecavacokeyboardtabbassdrumsharmonicaflute Guitar Pro
close

there isn't a video lesson for this song

chords

Celebration

	  		e|-----------------------|-----------------------|-----------------------| 
B|-----------------------|-----------------------|-----------------------| 
G|-----------------------|-----------------------|-----------------------| 
D|-----------------------|-----------------------|-----------------------| 
A|----7-----7---3-4-5-6-7|----7-----7---3-4-5-6-7|--5---5-3-2---5---5-3-2| 
E|5-----5-----5----------|5-----5-----5----------|3---3-------3---3------| 

e|-----------------------|-----------------------|-----------------------| 
B|-----------------------|-----------------------|-----------------------| 
G|-----------------------|-----------------------|-----------------------| 
D|-----------------------|----9-----9---5-6-7-8-9|----9-----9---5-6-7-8-9| 
A|--5---5-3-2---5---5-3-2|7-----7-----7----------|7-----7-----7----------| 
E|3---3-------3---3------|-----------------------|-----------------------| 

e|-----------------------|-----------------------|-----------------------| 
B|-----------------------|-----------------------|-----------------------| 
G|-----------------------|-----------------------|-----------------------| 
D|-----------------------|-----------------------|-----------------------| 
A|--9---9-7-6---9---9-7-6|--9---9-7-6---9---9-7-6|----5-----5---1-2-3-4-5| 
E|7---7-------7---9------|7---7-------7---7------|3-----3-----3----------| 

e|-----------------------|-----------------------|-----------------------| 
B|-----------------------|-----------------------|-----------------------| 
G|-----------------------|-----------------------|-----------------------| 
D|-----------------------|--7---7-5-4---7---7-5-4|--7---7-5-4---7---7-5-4| 
A|----5-----5---1-2-3-4-5|5---5-------5---5------|5---5-------5---5------| 
E|3-----3-----3----------|-----------------------|-----------------------| 

"TARANTELLA" 2nd time / 2nda volta (mostly triplets / la maggior parte 
terzine) 

e|-----------------------|-----------------------|-----------------------| 
B|-----------------------|-----------------------|-----------------------| 
G|-----------------------|-----------------------|------------------9-5-9| 
D|-----------------------|-----------------------|------------5-5-5------| 
A|----7-----7---3-4-5-6-7|----7-----7---3-4-5-6-7|------5-5-5------------| 
E|5-----5-----5----------|5-----5-----5----------|7-7-7------------------| 

e|---------------------------10-----|-------------------------| 
B|------------------12----12--------|-------------------------| 
G|---------12-12-12----12-----------|-------------------------| 
D|12-12-12--------------------------|---6-4-6-4----4-6-4-6-4--| 
A|----------------------------------|-----------7------------7| 
E|----------------------------------|-------------------------| 


e|-----------------------|------------------------|---------------------|  
B|-----------------------|------------------------|---------------------|  
G|-----------------------|------------------------|---------------------|  
D|4-6-4-6-4---4-6-4-6-4--|-------------7-----7----|------------7-----7--|  
A|---------7------------7|-----6---9------6-9-----|----6---9------6-9---|  
E|------------------------|7-------------7---------|7-------------7------| 

e|-------------------------|-------------------------| 
B|-------------------------|-------------------------| 
G|-------------------------|-------------------------| 
D|-------------------------|-------------------------| 
A|----5-----5-----1-2-3-4-5|----5-----5-----1-2-3-4-5| 
E|3-----3-----3------------|3-----3-----3------------| 

e|----------------------------|----------------------------| 
B|----------------------------|----------------------------| 
G|----------------------------|----------------------------| 
D|-7-7-7--7-7-7--7-7-7--7-7-7-|-7-7-7--7-7-7--7-7-7--7-7-7-| 
A|-5-5-5--5-5-5--5-5-5--5-5-5-|-5-5-5--5-5-5--5-5-5--5-5-5-| 
E|----------------------------|----------------------------| 

"LAH-LAH-LAH-LAH-LAH-LAH" | E-F#-G# PART 

e|---------------------|---------------------|-------------------------| 
B|---------------------|---------------------|-------------------------| 
G|---------------------|---------------------|-------------------------| 
D|9----9-7-5-7----7-5-4|-----5----45/4-------|------9-----------11-----| 
A|---------------------|7----------------7-5-|7-----------9------------| 
E|---------------------|--------------------7|-------------------------| 

e|----------------------------|---------------------|-----------------| 
B|----------------------------|---------------------|-----------------| 
G|----------------------------|---------------------|-----------------| 
D|-------13-----14------------|-----9----------11---|------13----14---| 
A|-11----------------14-11---9|7----------9---------|11---------------| 
E|----------------------------|---------------------|-----------------| 

e|-----------------|--------------------------|----------------------| 
B|-----------------|--------------------------|----------------------| 
G|-----------------|--------------------------|----------------------| 
D|----9-------11---|-----13----14-13----------|------14-13-----------| 
A|7-------9--------|11--------------16-14-----|-----------16--14-----| 
E|-----------------|---------------------16-14|12---------------16-14| 

e|------------------------|----------------------|--------------------| 
B|------------------------|----------------------|---------------7----| 
G|------------------------|----------------------|----------6---------| 
D|------------14---13-----|----------------------|-9------------------| 
A|-------------------16-14|-----------------7----|--------------------| 
E|-12---------------------|-16-14-12-5-----------|--------------------| 

e|-7----------10----------| 
B|------------------------| 
G|------------------------| "you've spent a long time waiting...." 
D|------------------------| (celebration)   
A|------------------------| "come sempre =E8 la festa...." 
E|------------------------| (=E8 festa) 
                            see the chords below 

VERSE 
  
     Bm                       F#m7 
         You've spent a long time .... 
                  G           Fmaj7/9   
         For a the perfect y... 
       C                               D 
         Now fill your heart with c.... 
                         E 
         For that's love.... 
         
         During synth melody:  

ATONAL ENDING / FINALE (diverso in E' festa) 

e|------------------------------|-----------------------------| 
B|---------------------------12-|--------------12-------------| 
G|-12-10--------8--11-10-9------|-11-10-9----------------11-10| 
D|------6--7-10-------------9--9|----------7---------8--------| 
A|------------------------------|-----------------------------| 
E|------------------------------|-----------------------------| 

e|-----------------------|----------------------|------- 
B|---11-10---------------|----------------------|------- 
G|---------------15------|----------------------|------- 
D|-10-------13-----------|----------------------|------- 
A|-----------------------|----------------------|------- 
E|-----------------------|------------0-1-2-3-4-|5------ 
		  

Full key step upFull key step up
Half key step upHalf key step up
Half key step downHalf key step down
Full key step downFull key step down
auto scroll beats size up size down change color hide chords drawings
tab show chords e-chords YouTube Clip e-chords hide all tabs e-chords go to top tab

share