Petra

More than a Thousand Words

Petra

tabs Expert expert

by  EDUARDO_LYVIO

save to print version add songbook text version e-mail correct tuner
chordsukulelecavacokeyboardtabbassdrumsharmonicaflute Guitar Pro
close

there isn't a video lesson for this song

chords

More than a Thousand Words

	  		Intro 
|   |--------------------------------|--------------------------------| 
|T  |--------3-------3-----------3---|--------3-------3-----------3---| 
|A 4|------0h2-----0h2-p-0-------0---|------0h2-----0h2-p-0-------0---| 
|B 4|------------------------2-------|------------------------2-------| 
|   |--------------------------------|--------------------------------| 
|   |3-------------------------------|2-------------------------------| 
     1   &   2   &   3   &   4   &    1   &   2   &   3   &   4   &    
|   |--------------------------------|--------------------------------| 
|T  |--------3-------3-----------3---|--------3-----------3---3-------| 
|A 4|------0h2-----0h2-p-0-------0---|----0-----------0-------2-------| 
|B 4|------------------------2-------|------------------------0-------| 
|   |--------------------------------|3-----------3-------------------| 
|   |0-------------------------------|--------------------------------| 
     1   &   2   &   3   &   4   &    1   &   2   &   3   &   4   &    
|   |--------------------------------|--------------------------------| 
|T  |--------3-------3-----------3---|--------3-------3-----------3---| 
|A 4|------0h2-----0h2-p-0-------0---|------0h2-----0h2-p-0-------0---| 
|B 4|------------------------2-------|------------------------2-------| 
|   |--------------------------------|--------------------------------| 
|   |3-------------------------------|2-------------------------------| 
     1   &   2   &   3   &   4   &    1   &   2   &   3   &   4   &    
|   |--------------------------------|--------------------------------| 
|T  |--------3-------3-----------3---|--------------------------------| 
|A 4|------0h2-----0h2-p-0-------0---|0-0h2-------2---3---3---3-------| 
|B 4|------------------------2-------|0---0-------0---0---0---2-------| 
|   |--------------------------------|--------------------------------| 
|   |0-------------------------------|--------------------------------| 
     1   &   2   &   3   &   4   &    1   &   2   &   3   &   4   &    
Verse (these two bars twice) 
|   |--------------------------------|--------------------------------| 
|T  |--------3-------3---------------|--------3-------3---------------| 
|A 4|------0h2-----0h2-p-0-------0---|------0h2-----0h2-p-0-------0---| 
|B 4|------------------------2---0---|------------------------2---0---| 
|   |--------------------------------|--------------------------------| 
|   |3-------------------------------|2-------------------------------| 
     1   &   2   &   3   &   4   &    1   &   2   &   3   &   4   &    
|   |--------------------------------|--------------------------------| 
|T  |--------3-------3---------------|--------3-----------3---3-------| 
|A 4|------0h2-----0h2-p-0-------0---|----0-----------0-------2-------| 
|B 4|------------------------2---0---|------------------------0-------| 
|   |--------------------------------|3-----------3-------------------| 
|   |0-------------------------------|--------------------------------| 
     1   &   2   &   3   &   4   &    1   &   2   &   3   &   4   &    
 
Bridge 
|   |----3-----------3-----------3---|----3-----------3-----------3---| 
|T  (3)------3-----------3-----------|--------3-----------3-----------| 
|A 4|2-----------2-----------2-------(0)----------0-----------0-------| 
|B 4|2-------------------------------|2-------------------------------| 
|   |0-------------------------------|2-------------------------------| 
|   |--------------------------------|0-------------------------------| 
     1   &   2   &   3   &   4   &    1   &   2   &   3   &   4   &    
|   |---3------------3-----------3---|----3-----------3-----------3---| 
|T  (3)------3-----------3-----------|--------3-----------3-----------| 
|A 4|5-------------------------------(4)----------5-----------5-------| 
|B 4|5-----------5-----------5-------|5-------------------------------| 
|   |3-------------------------------|5-------------------------------| 
|   |--------------------------------|3-------------------------------| 
     1   &   2   &   3   &   4   &    1   &   2   &   3   &   4   &    
|   |----3-----------3-----------3---|----3-----------3-----------3---| 
|T  (3)------3-----------3-----------|--------3-----------3-----------| 
|A 4|2-----------2-----------2-------(0)----------0-----------0-------| 
|B 4|2-------------------------------|2-------------------------------| 
|   |0-------------------------------|2-------------------------------| 
|   |--------------------------------|0-------------------------------| 
     1   &   2   &   3   &   4   &    1   &   2   &   3   &   4   &    
                                                           
Chorus begins 
|   |---3------------3-----------3---|------2-2---2-------------------| 
|T  (3)------3-----------3-----------|3-----3-3---3-------------------| 
|A 4|5-------------------------------|2-------2---2-------------------| 
|B 4|5-----------5-----------5-------|0-------0---0-------------------| 
|   |3-------------------------------|--------------------------------| 
|   |--------------------------------|--------------------7---7---3---| 
     1   &   2   &   3   &   4   &    1   &   2   &   3   &   4   &    
 
Chorus 
|   |--------------------------------|8-----------8-----------8-------| 
|T  |--------------------------------|----8---10------8---10------8---| 
|A 4|--------------------------------|--------------------------------| 
|B 4|--------------------------------|--------------------------------| 
|   |--------------------------------|--------------------------------| 
|   |5-------3---5-------7-------0---|--------------------------------| 
     1   &   2   &   3   &   4   &    1   &   2   &   3   &   4   &    
|   |--------------------------------|8-----------8-----------8-------| 
|T  |--------------------------------|----8---10------8---10------8---| 
|A 4|--------------------------------|--------------------------------| 
|B 4|--------------------------------|--------------------------------| 
|   |--------------------------------|--------------------------------| 
|   |5-------3---5-------7-------8---|--------------------------------| 
     1   &   2   &   3   &   4   &    1   &   2   &   3   &   4   &    
|   |--------------------------------|8-----------8-----------8-------| 
|T  |--------------------------------|----8---10------8---10------8---| 
|A 4|--------------------------------|--------------------------------| 
|B 4|--------------------------------|--------------------------------| 
|   |--------------------------------|--------------------------------| 
|   |5-------3---5-------7-------0---|--------------------------------| 
     1   &   2   &   3   &   4   &    1   &   2   &   3   &   4   &    
|   |2--------------------------(0)--|------0-----2-------------------| 
|T  |3-------5---------------5---3---|------3-3---3-------------------| 
|A 4|2-------5-----------5---5---0---|------0-0---2-------------------| 
|B 4|0-------5-----------5---5---0---|------0-0---0-------------------| 
|   |--------------------3---3-------|--------------------------------| 
|   |--------------------------------|--------------------------------| 
     1   &   2   &   3   &   4   &    1   &   2   &   3   &   4   &    
 
Verse 
Bridge 
Chorus 
Other Thing 
|   |--------------------------------|--------------------------------| 
|T  |--------------------------------|--------------------------------| 
|A 4|--------------------------------|--------------------------------| 
|B 4|--------------------------------|--------------------------------| 
|   |--------------------------------|--------------------------------| 
|   |--------------------------------|--------------------------------| 
     1   &   2   &   3   &   4   &    1   &   2   &   3   &   4   &    
|   |--------------------------------|--------------------------------| 
|T  |--------------------------------|--------------------------------| 
|A 4|--------------------------------|--------------------------------| 
|B 4|--------------------------------|--------------------------------| 
|   |--------------------------------|--------------------------------| 
|   |--------------------------------|--------------------------------| 
     1   &   2   &   3   &   4   &    1   &   2   &   3   &   4   &    
|   |--------------------------------|--------------------------------| 
|T  |--------------------------------|--------------------------------| 
|A 4|--------------------------------|--------------------------------| 
|B 4|--------------------------------|--------------------------------| 
|   |--------------------------------|--------------------------------| 
|   |--------------------------------|--------------------------------| 
     1   &   2   &   3   &   4   &    1   &   2   &   3   &   4   &    
|   |--------------------------------|--------------------------------| 
|T  |--------------------------------|--------------------------------| 
|A 4|--------------------------------|--------------------------------| 
|B 4|--------------------------------|--------------------------------| 
|   |--------------------------------|--------------------------------| 
|   |--------------------------------|--------------------------------| 
     1   &   2   &   3   &   4   &    1   &   2   &   3   &   4   &    
|   |--------------------------------|--------------------------------| 
|T  |--------------------------------|--------------------------------| 
|A 4|--------------------------------|--------------------------------| 
|B 4|--------------------------------|--------------------------------| 
|   |--------------------------------|--------------------------------| 
|   |--------------------------------|--------------------------------| 
     1   &   2   &   3   &   4   &    1   &   2   &   3   &   4   &    
 
 
 

		  

See also:

tabs Caedmon's Call - April Showers tabs The Raveonettes - Hark! The Herald Angels Sing tabs Vineyard - Vim Para Adorar-te tabs The Raveonettes - joy to the world tabs The Raveonettes - the first noel tabs Hillsong - Healer
e-chords

Other versions:

tabs Petra - More than a Thousand Words
auto scroll beats size up size down change color hide chords drawings
tab show chords e-chords YouTube Clip e-chords hide all tabs e-chords go to top tab

share