Petra

Midnight oil

Petra

tabs Beginner beginner

by  EDUARDO_LYVIO

save to print version add songbook text version e-mail correct tuner
chordsukulelecavacokeyboardtabbassdrumsharmonicaflute Guitar Pro
close

there isn't a video lesson for this song

chords

Midnight oil

	  		  
                              | ||-------------------------------- 
                              | ||-------------------------------- 
                              |4||-------------------------------- 
                              |4||-------------------------------- 
                              | ||----------------1-/-2-/-3-/-4--- 
                              | ||----------------1-/-2-/-3-/-4---                                              
                                  1 e & a 2 e & a 3 e & a 4 e & a 
 
 
 Intro 
|--------------------------------|-------------------------------- 
|--------------------------------|-------------------------------- 
|--5p4p2-2-------0---2---5---0-2-|--5p4p2-2-------0---2---5---0-2- 
|2-5p4p2-2-------0---2---5---0-2-|--5p4p2-2-------0---2---5---0-2- 
|0-----------0-0-----------------|------------0-0----------------- 
|--------------------------------|-------------------------------- 
 1 e & a 2 e & a 3 e & a 4 e & a  1 e & a 2 e & a 3 e & a 4 e & a 
 
 
 
 
|--------------------------------|-------------------------------- 
|--------------------------------|-------------------------------- 
|--5p4p2-2-------0---2---5---0-2-|--5p4p2-2-------7--------------- 
|--5p4p2-2-------0---2---5---0-2-|--5p4p2-2-------7-----5--------- 
|------------0-0-----------------|------------0-0-5-----5--------- 
|--------------------------------|----------------------3--------- 
 1 e & a 2 e & a 3 e & a 4 e & a  1 e & a 2 e & a 3 e & a 4 e & a 
 
 
 
 Solo 1 (Guitar 1) 
|--------------------------------|-------------------------------- 
|--------------------------------|-------------------------------- 
|--5p4p2-2-------0---2---5---0-2-|--5p4p2-2-------0---2---5---0-2- 
|2-5p4p2-2-------0---2---5---0-2-|--5p4p2-2-------0---2---5---0-2- 
|0-----------0-0-----------------|------------0-0----------------- 
|--------------------------------|-------------------------------- 
|1 e & a 2 e & a 3 e & a 4 e & a  1 e & a 2 e & a 3 e & a 4 e & a 
|(Guitar 2)       |Let string|                          |bend 13 up 
|Bend 15 upto 16| |fall backto 15||bend same way|        and down|    
|----------------15--------------|----------------17-------------- 
|15-^-^-^-^-^-------^-15-----13--|15-^-^-^-^-----------^15-13^--13 
|--------------------------------|-----------------------------14- 
|--------------------------------|-------------------------------- 
|--------------------------------|-------------------------------- 
|--------------------------------|-------------------------------- 
 1 e & a 2 e & a 3 e & a 4 e & a  1 e & a 2 e & a 3 e & a 4 e & a 
 
 
 
 
|--------------------------------|-------------------------------- 
|--------------------------------|-------------------------------- 
|--5p4p2-2-------0---2---5---0-2-|--5p4p2-2-------7--------------- 
|--5p4p2-2-------0---2---5---0-2-|--5p4p2-2-------7-----5--------- 
|------------0-0-----------------|------------0-0-5-----5--------- 
|--------------------------------|----------------------3--------- 
|1 e & a 2 e & a 3 e & a 4 e & a  1 e & a 2 e & a 3 e & a 4 e & a 
|(Guitar 2) 
|  |bend 13 up and down|         |9-12 trill|    
|--------------------------------|------------------5------------- 
|17--15--13-^----------13--------|----------------58-85----------- 
|--14--14--------141314--14------|9"12"""/12-----------75--------- 
|--------------------------------|-----------------------75\\\\\\- 
|--------------------------------|-------------------------------- 
|--------------------------------|-------------------------------- 
 1 e & a 2 e & a 3 e & a 4 e & a  1 e & a 2 e & a 3 e & a 4 e & a 
 
 
 
 
Verse  
|--------------------------------|-------------------------------- 
|--------------------------------|-------------------------------- 
|--5p4p2-2-------0---2---5---0-2-|--5p4p2-2-------7--------------- 
|2-5p4p2-2-------0---2---5---0-2-|--5p4p2-2-------7-----5--------- 
|0-----------0-0-----------------|------------0-0-5-----5--------- 
|--------------------------------|----------------------3--------- 
 1 e & a 2 e & a 3 e & a 4 e & a  1 e & a 2 e & a 3 e & a 4 e & a 
 We  wait since the day He ascended He said he would come again 
 
 
 
|--------------------------------|-------------------------------- 
|--------------------------------|-------------------------------- 
|--5p4p2-2-------0---2---5---0-2-|--5p4p2-2-------7--------------- 
|2-5p4p2-2-------0---2---5---0-2-|--5p4p2-2-------7-----5--------- 
|0-----------0-0-----------------|------------0-0-5-----5--------- 
|--------------------------------|----------------------3--------- 
 1 e & a 2 e & a 3 e & a 4 e & a  1 e & a 2 e & a 3 e & a 4 e & a 
Some think it will be such a long time Some think they know just when 
 
 
 
|--------------------------------|-------------------------------- 
|--------------------------------|-------------------------------- 
|--5p4p2-2-------0---2---5---0-2-|--5p4p2-2-------7--------------- 
|2-5p4p2-2-------0---2---5---0-2-|--5p4p2-2-------7-----5--------- 
|0-----------0-0-----------------|------------0-0-5-----5--------- 
|--------------------------------|----------------------3--------- 
 1 e & a 2 e & a 3 e & a 4 e & a  1 e & a 2 e & a 3 e & a 4 e & a 
We live like there's no tomorrow We wait with our lamps of oil 
 
 
 
|--------------------------------|-------------------------------- 
|--------------------------------|-------------------------------- 
|--5p4p2-2-------0---2---5---0-2-|--5p4p2-2-------7--------------- 
|2-5p4p2-2-------0---2---5---0-2-|--5p4p2-2-------7-----5--------- 
|0-----------0-0-----------------|------------0-0-5-----5--------- 
|--------------------------------|----------------------3--------- 
 1 e & a 2 e & a 3 e & a 4 e & a  1 e & a 2 e & a 3 e & a 4 e & a 
 We watch for the midnight hour   The day we cease our toil 
 
 
 Bridge 
|--------------------------------|-------------------------------- 
|--------------------------------|-------------------------------- 
|--------------------------------|-------------------------------- 
|----------------5---------------|----------------5--------------- 
|3---------------3---------------|3---------------3---5-5--------- 
|1-------------------------------|1-------------------3-3--------- 
 1 e & a 2 e & a 3 e & a 4 e & a  1 e & a 2 e & a 3 e & a 4 e & a 
        When the trum -- pet      sounds   and   bridegroom comes  
 
 
 Chorus        |--3--|                           |----|=16th notes 
|----3-3-2-0---------------------|----3-3-2-0--------------------- 
|----3-3-3-0---------------------|----3-3-3-0--------------------- 
|--------------------------------|----------------2420------------ 
|---------------0h2p0--------2---|--------------------2-------0--- 
|--------------------2-----------|--------------------------2----- 
|0---------------------3-0-0-----|0------------------------------- 
 1 e & a 2 e & a 3 e & a 4 e & a  1 e & a 2 e & a 3 e & a 4 e & a 
         The weddings going to be royal  So we gotta keep staying 
 
 
 
               |--3--|                           |----|=16th notes 
|----3-3-2-0---------------------|----3-3-2-0--------------------- 
|----3-3-3-0---------------------|----3-3-3-0--------------------- 
|--------------------------------|----------------2420------------ 
|---------------0h2p0--------2---|--------------------2-------0--- 
|--------------------2-----------|--------------------------2----- 
|0---------------------3-0-0-----|0------------------------------- 
 1 e & a 2 e & a 3 e & a 4 e & a  1 e & a 2 e & a 3 e & a 4 e & a 
 loyal 'Cause  feet  gonna   this soil    When we burn the midnight 
             our  are    leave  
 
 
|--------------------------------|-------------------------------- 
|--------------------------------|-------------------------------- 
|--5p4p2-2-------0---2---5---0-2-|--5p4p2-2-------0---2---5---0-2- 
|2-5p4p2-2-------0---2---5---0-2-|--5p4p2-2-------0---2---5---0-2- 
|0-----------0-0-----------------|------------0-0----------------- 
|--------------------------------|-------------------------------- 
|1 e & a 2 e & a 3 e & a 4 e & a  1 e & a 2 e & a 3 e & a 4 e & a 
|(Guitar 2) 
|  |Bend 7 up 1/2 and down 3X's| 
|--------------------------------|-------------------------------- 
|--------------------------------|-------------------------------- 
|--------------------7--^--^--^--|5------------------------------- 
|--------------------------------|----7--------------------------- 
|--------------------------------|-------------------------------- 
|--------------------------------|-------------------------------- 
 1 e & a 2 e & a 3 e & a 4 e & a  1 e & a 2 e & a 3 e & a 4 e & a 
 oil                                      When we burn the midnight 
 
 
 
 
|--------------------------------|-------------------------------- 
|--------------------------------|-------------------------------- 
|--5p4p2-2-------0---2---5---0-2-|--5p4p2-2-------7--------------- 
|--5p4p2-2-------0---2---5---0-2-|--5p4p2-2-------7-----5--------- 
|------------0-0-----------------|------------0-0-5-----5--------- 
|--------------------------------|----------------------3--------- 
|1 e & a 2 e & a 3 e & a 4 e & a  1 e & a 2 e & a 3 e & a 4 e & a 
|(Guitar 2) 
|               |Bend down to 15|             * = false harmonic 
|--------------------15----------|-------------------------------- 
|----------------------^15-131517|13-----------------*15-^-------- 
|--------------------------------|---14----------*12-------------- 
|--------------------------------|-------------------------------- 
|--------------------------------|-------------------------------- 
|--------------------------------|-------------------------------- 
 1 e & a 2 e & a 3 e & a 4 e & a  1 e & a 2 e & a 3 e & a 4 e & a 
 oil 
 
 
 
 Verse 2 
|--------------------------------|-------------------------------- 
|--------------------------------|-------------------------------- 
|--5p4p2-2-------0---2---5---0-2-|--5p4p2-2-------7--------------- 
|2-5p4p2-2-------0---2---5---0-2-|--5p4p2-2-------7-----5--------- 
|0-----------0-0-----------------|------------0-0-5-----5--------- 
|--------------------------------|----------------------3--------- 
 1 e & a 2 e & a 3 e & a 4 e & a  1 e & a 2 e & a 3 e & a 4 e & a 
 Some wait from the top of the mountain   Away from the world below 
 
 
 
|--------------------------------|-------------------------------- 
|--------------------------------|-------------------------------- 
|--5p4p2-2-------0---2---5---0-2-|--5p4p2-2----------------------- 
|2-5p4p2-2-------0---2---5---0-2-|--5p4p2-2----------------------- 
|0-----------0-0-----------------|------------0-0----------------- 
|--------------------------------|----------------0-2-0-2-3------- 
 1 e & a 2 e & a 3 e & a 4 e & a  1 e & a 2 e & a 3 e & a 4 e & a 
 Some work while there's still a harvest No  when  seed  sow 
                                          rest there's to  
 
 
|--------------------------------|-------------------------------- 
|--------------------------------|-------------------------------- 
|--5p4p2-2-------0---2---5---0-2-|--5p4p2-2-------7--------------- 
|2-5p4p2-2-------0---2---5---0-2-|--5p4p2-2-------7-----5--------- 
|0-----------0-0-----------------|------------0-0-5-----5--------- 
|--------------------------------|----------------------3--------- 
 1 e & a 2 e & a 3 e & a 4 e & a  1 e & a 2 e & a 3 e & a 4 e & a 
We go out to wait for the bridegroom Some bring oil of readiness 
 
 
 
|--------------------------------|-------------------------------- 
|--------------------------------|-------------------------------- 
|--5p4p2-2-------0---2---5---0-2-|--5p4p2-2-------7--------------- 
|2-5p4p2-2-------0---2---5---0-2-|--5p4p2-2-------7-----5--------- 
|0-----------0-0-----------------|------------0-0-5-----5--------- 
|--------------------------------|----------------------3--------- 
 1 e & a 2 e & a 3 e & a 4 e & a  1 e & a 2 e & a 3 e & a 4 e & a 
 Some lamps will be burned out waiting Left out in their emptiness 
 
 
 
 Bridge 
|--------------------------------|-------------------------------- 
|--------------------------------|-------------------------------- 
|--------------------------------|-------------------------------- 
|----------------5---------------|----------------5--------------- 
|3---------------3---------------|3---------------3---5-5--------- 
|1-------------------------------|1-------------------3-3--------- 
 1 e & a 2 e & a 3 e & a 4 e & a  1 e & a 2 e & a 3 e & a 4 e & a 
         Will our lamps    be     full       at   Parousia?      
 
 
Chorus  2      |--3--|                           |----|=16th notes 
|----3-3-2-0---------------------|----3-3-2-0--------------------- 
|----3-3-3-0---------------------|----3-3-3-0--------------------- 
|--------------------------------|----------------2420------------ 
|---------------0h2p0--------2---|--------------------2-------0--- 
|--------------------2-----------|--------------------------2----- 
|0---------------------3-0-0-----|0------------------------------- 
 1 e & a 2 e & a 3 e & a 4 e & a  1 e & a 2 e & a 3 e & a 4 e & a 
 (see previous lyrics) 
 
 
 
               |--3--|                           |----|=16th notes 
|----3-3-2-0---------------------|----3-3-2-0--------------------- 
|----3-3-3-0---------------------|----3-3-3-0--------------------- 
|--------------------------------|----------------2420------------ 
|---------------0h2p0--------2---|--------------------2-------0--- 
|--------------------2-----------|--------------------------2----- 
|0---------------------3-0-0-----|0------------------------------- 
 1 e & a 2 e & a 3 e & a 4 e & a  1 e & a 2 e & a 3 e & a 4 e & a 
 
 
 
 
|--------------------------------|-------------------------------- 
|--------------------------------|-------------------------------- 
|--------------------------------|7------------------------------- 
|2---2---------------------------|7------------------------------- 
|0---0---------------------------|5-----5------------------------- 
|--------------------------------|------3------------------------- 
|1 e & a 2 e & a 3 e & a 4 e & a  1 e & a 2 e & a 3 e & a 4 e & a 
|(Guitar 2)                                          |Can substitute 
| Guitar 2 plays next 8 measures with a guitar slide.|slide for bend. 
|--------------------------------|-------------------------------- 
|--------------------------------|-------------------------------- 
|--------------------------------|-------------------------------- 
|--------------7\5-------7-------|-------------------------------- 
|--------------------7-----------|-------------------------------- 
|--------------------------------|-------------------------------- 
 1 e & a 2 e & a 3 e & a 4 e & a  1 e & a 2 e & a 3 e & a 4 e & a 
 
 
 
 
|--------------------------------|-------------------------------- 
|--------------------------------|-------------------------------- 
|--------------------------------|7-----9------------------------- 
|2---2---------------------------|7-----9------------------------- 
|0---0---------------------------|5-----7------------------------- 
|--------------------------------|-------------------------------- 
|1 e & a 2 e & a 3 e & a 4 e & a  1 e & a 2 e & a 3 e & a 4 e & a 
|(Guitar 2) 
| 
|--------------------------------|-------------------------------- 
|--------------------------------|--------------9\7---9----------- 
|--------------6\4---6-----------|------------------------9------- 
|------------------------7-------|-------------------------------- 
|--------------------------------|-------------------------------- 
|--------------------------------|-------------------------------- 
 1 e & a 2 e & a 3 e & a 4 e & a  1 e & a 2 e & a 3 e & a 4 e & a 
 
 
 
 
|--------------------------------|-------------------------------- 
|--------------------------------|-------------------------------- 
|--------------------------------|7------------------------------- 
|2---2---------------------------|7------------------------------- 
|0---0---------------------------|5-----5------------------------- 
|--------------------------------|------3------------------------- 
|1 e & a 2 e & a 3 e & a 4 e & a  1 e & a 2 e & a 3 e & a 4 e & a 
|(Guitar 2) 
| 
|--------------------------------|-------------------------------- 
|--------------------------------|-------------------------------- 
|--------------------------------|-------------------------------- 
|--------------------------------|-------------------------------- 
|--------------------------------|-------------------------------- 
|--------------------------------|-------------------------------- 
 1 e & a 2 e & a 3 e & a 4 e & a  1 e & a 2 e & a 3 e & a 4 e & a 
 
 
 
 
|--------------------------------|-------------------------------- 
|--------------------------------|-------------------------------- 
|--------------------------------|7-----9------------------------- 
|2---2---------------------------|7-----9------------------------- 
|0---0---------------------------|5-----7------------------------- 
|--------------------------------|-------------------------------- 
|1 e & a 2 e & a 3 e & a 4 e & a  1 e & a 2 e & a 3 e & a 4 e & a 
|(Guitar 2) 
| 
|--------------------------------|-------------------------------- 
|--------------------------------|-------------------------------- 
|--------------6\4---6-----------|-------------------------------- 
|----------------------7---------|-------------------------------- 
|--------------------------------|-------------------------------- 
|--------------------------------|-------------------------------- 
 1 e & a 2 e & a 3 e & a 4 e & a  1 e & a 2 e & a 3 e & a 4 e & a 
 
 
 
 
 Solo 2 
|---------------------------------------------------------------- 
|---------------------------------------------------------------- 
|----5-p-4-p-2---2---------------0-------2-------5-------0---2--- 
|2---5-p-4-p-2---2---------------0-------2-------5-------0---2--- 
|0-----------------------0---0----------------------------------- 
|---------------------------------------------------------------- 
|1   e   &   a   2   e   &   a   3   e   &   a   4   e   &   a    
|(Guitar 2) 
||bend all notes in measure up 1 whole tone| 
|---------------------------------------------------------------- 
|---------------------------------------------------------------- 
|--------------------------------5-^-^-^-^-^-----7-^-^-^-^------- 
|3-^-^-^-^-^----------------------------------------------------- 
|---------------------------------------------------------------- 
|---------------------------------------------------------------- 
 1   e   &   a   2   e   &   a   3   e   &   a   4   e   &   a    
 
 
 
 
|---------------------------------------------------------------- 
|---------------------------------------------------------------- 
|----5-p-4-p-2---2---------------0-------2-------5-------0---2--- 
|----5-p-4-p-2---2---------------0-------2-------5-------0---2--- 
|------------------------0---0----------------------------------- 
|---------------------------------------------------------------- 
|1   e   &   a   2   e   &   a   3   e   &   a   4   e   &   a    
|(Guitar 2) 
||bend all notes in measure up 1 whole tone| 
|---------------------------------------------------------------- 
|------------------------8-^-^-^-^-^----------------------------- 
|10-^-^-^-^-^--------------------------------------------------- 
|---------------------------------------------------------------- 
|---------------------------------------------------------------- 
|---------------------------------------------------------------- 
 1   e   &   a   2   e   &   a   3   e   &   a   4   e   &   a    
 
 
 
|---------------------------------------------------------------- 
|---------------------------------------------------------------- 
|----5-p-4-p-2---2---------------0-------2-------5-------0---2--- 
|2---5-p-4-p-2---2---------------0-------2-------5-------0---2--- 
|0-----------------------0---0----------------------------------- 
|---------------------------------------------------------------- 
|1   e   &   a   2   e   &   a   3   e   &   a   4   e   &   a    
|(Guitar 2) 
|                                           |bend 7 up and down| 
|--------8-----------7-----------5-------5----------------------- 
|5-h-8-------5-h-8-------5-h-8-------8-------8------------------- 
|------------------------------------------------7-^-5----------- 
|--------------------------------------------------------7------- 
|---------------------------------------------------------------- 
|---------------------------------------------------------------- 
 1   e   &   a   2   e   &   a   3   e   &   a   4   e   &   a    
 
 
 
|---------------------------------------------------------------- 
|---------------------------------------------------------------- 
|----5-p-4-p-2---2---------------7------------------------------- 
|2---5-p-4-p-2---2---------------7-----------5------------------- 
|0-----------------------0---0---5-----------5------------------- 
|--------------------------------------------3------------------- 
|1   e   &   a   2   e   &   a   3   e   &   a   4   e   &   a    
|(Guitar 2) 
||--3---|---3---|---3---|---3---| (triplets) 
|---------------------------------------------------------------- 
|---------------------------------------------------------------- 
|7--5----5------------------------------------------------------- 
|------7----7--5-7--5----5--------------------------------------- 
|----------------------7----7--5-5\\\\\\\------------------------ 
|---------------------------------------------------------------- 
 1   e   &   a   2   e   &   a   3   e   &   a   4   e   &   a    
 
 
 
|---------------------------------------------------------------- 
|---------------------------------------------------------------- 
|----5-p-4-p-2---2---------------0-------2-------5-------0---2--- 
|2---5-p-4-p-2---2---------------0-------2-------5-------0---2--- 
|0-----------------------0---0----------------------------------- 
|---------------------------------------------------------------- 
|1   e   &   a   2   e   &   a   3   e   &   a   4   e   &   a    
|(Guitar 2) 
|     10's   |slight bend| 
|----------------8-^-----------------------------10--8----------- 
|8-10101010101010----------------8-10101010101010--------10------ 
|---------------------------------------------------------------- 
|---------------------------------------------------------------- 
|---------------------------------------------------------------- 
|---------------------------------------------------------------- 
 1   e   &   a   2   e   &   a   3   e   &   a   4   e   &   a    
 
 
 
 
|---------------------------------------------------------------- 
|---------------------------------------------------------------- 
|----5-p-4-p-2---2---------------0-------2-------5-------0---2--- 
|----5-p-4-p-2---2---------------0-------2-------5-------0---2--- 
|------------------------0---0----------------------------------- 
|---------------------------------------------------------------- 
|1   e   &   a   2   e   &   a   3   e   &   a   4   e   &   a    
|(Guitar 2) 
|                                    |bend up one tone and hold| 
|---------------------------------------------------------------- 
|--------10----------13----------15------15-^-^-^-^-------------- 
|7-/-9-------9-/-12------12-/14------14-------------------------- 
|---------------------------------------------------------------- 
|---------------------------------------------------------------- 
|---------------------------------------------------------------- 
 1   e   &   a   2   e   &   a   3   e   &   a   4   e   &   a    
 
 
 
|---------------------------------------------------------------- 
|---------------------------------------------------------------- 
|----5-p-4-p-2---2---------------0-------2-------5-------0---2--- 
|2---5-p-4-p-2---2---------------0-------2-------5-------0---2--- 
|0-----------------------0---0----------------------------------- 
|---------------------------------------------------------------- 
|1   e   &   a   2   e   &   a   3   e   &   a   4   e   &   a    
|(Guitar 2) 
|  |release bent 15|           |bend 1/2| |bend full| 
|17-----------------------------15-^-^-^-15-^-^-^-^-^---15----12- 
|----^-^-15--13------15--13--15---------------------------------- 
|---------------------------------------------------------------- 
|---------------------------------------------------------------- 
|---------------------------------------------------------------- 
|---------------------------------------------------------------- 
 1   e   &   a   2   e   &   a   3   e   &   a   4   e   &   a    
 
 
 
|---------------------------------------------------------------- 
|---------------------------------------------------------------- 
|----5-p-4-p-2---2---------------7------------------------------- 
|2---5-p-4-p-2---2---------------7-----------5------------------- 
|0-----------------------0---0---5-----------5------------------- 
|--------------------------------------------3------------------- 
|1   e   &   a   2   e   &   a   3   e   &   a   4   e   &   a    
|(Guitar 2) 
||--3---|---3---|  (triplets)   |---3---|---3---|---3---|---3---| 
|15-1312-13-12-------------------13-1513-12---------------------- 
|-------------15-13-------------------------1513-12-1513-12------ 
|-----------------------------------------------------------1412- 
|---------------------------------------------------------------- 
|---------------------------------------------------------------- 
|---------------------------------------------------------------- 
 1   e   &   a   2   e   &   a   3   e   &   a   4   e   &   a    
 
 
 
 
 
Bridge 
|--------------------------------|-------------------------------- 
|--------------------------------|-------------------------------- 
|--------------------------------|-------------------------------- 
|----------------5---------------|----------------5--------------- 
|3---------------3---------------|3---------------3---5-5--------- 
|1-------------------------------|1-------------------3-3--------- 
|1 e & a 2 e & a 3 e & a 4 e & a  1 e & a 2 e & a 3 e & a 4 e & a 
|(Guitar 2) 
| 
|-------------------------------- 
|-------------------------------- 
|10------------------------------ 
|-------------------------------- 
|-------------------------------- 
|-------------------------------- 
 1 e & a 2 e & a 3 e & a 4 e & a 
          When the bridegroom    comes   We will hear the call.   
 
 
 
Chorus  3      |--3--|                           |----|=16th notes 
|----3-3-2-0---------------------|----3-3-2-0--------------------- 
|----3-3-3-0---------------------|----3-3-3-0--------------------- 
|--------------------------------|----------------2420------------ 
|---------------0h2p0--------2---|--------------------2-------0--- 
|--------------------2-----------|--------------------------2----- 
|0---------------------3-0-0-----|0------------------------------- 
 1 e & a 2 e & a 3 e & a 4 e & a  1 e & a 2 e & a 3 e & a 4 e & a 
 
 
 
 
               |--3--|                           |----|=16th notes 
|----3-3-2-0---------------------|----3-3-2-0--------------------- 
|----3-3-3-0---------------------|----3-3-3-0--------------------- 
|--------------------------------|----------------2420------------ 
|---------------0h2p0--------2---|--------------------2-------0--- 
|--------------------2-----------|--------------------------2----- 
|0---------------------3-0-0-----|0------------------------------- 
 1 e & a 2 e & a 3 e & a 4 e & a  1 e & a 2 e & a 3 e & a 4 e & a 
 
 
 
 
|--------------------------------|-------------------------------- 
|0-0-5-0-3-0-----5-0-3-0---------|0-0-5-0-3-0-----5-0-3-0--------- 
|------------2-0---------2-0-----|------------2-0---------2-0----- 
|----------------------------2-0-|----------------------------2-0- 
|--------------------------------|-------------------------------- 
|--------------------------------|-------------------------------- 
 1 e & a 2 e & a 3 e & a 4 e & a  1 e & a 2 e & a 3 e & a 4 e & a 
 
 
 
 
|--------------------------------|-------------------------------- 
|0-0-5-0-3-0-----5-0-3-0---------|0-0-5-0-3-0-----5-0-3-0--------- 
|------------2-0---------2-0-----|------------2-0---------2-0----- 
|----------------------------2-0-|----------------------------2-0- 
|--------------------------------|-------------------------------- 
|--------------------------------|-------------------------------- 
 1 e & a 2 e & a 3 e & a 4 e & a  1 e & a 2 e & a 3 e & a 4 e & a 
 
 
 
 
|-------------------------------- 
|-------------------------------- 
|-------------------------------- 
|-------------------------------- 
|2---2--------------------------- 
|0---0--------------------------- 
 1 e & a 2 e & a 3 e & a 4 e & a 
 
 
 
|--------------------------------|-------------------------------- 
|--------------------------------|-------------------------------- 
|--5p4p2-2-------0---2---5---0-2-|--5p4p2-2-------0---2---5---0-2- 
|2-5p4p2-2-------0---2---5---0-2-|--5p4p2-2-------0---2---5---0-2- 
|0-----------0-0-----------------|------------0-0----------------- 
|--------------------------------|-------------------------------- 
 1 e & a 2 e & a 3 e & a 4 e & a  1 e & a 2 e & a 3 e & a 4 e & a 
 
 
 
 
|--------------------------------|-------------------------------- 
|--------------------------------|-------------------------------- 
|--5p4p2-2-------0---2---5---0-2-|--5p4p2-2---------------------1- 
|--5p4p2-2-------0---2---5---0-2-|--5p4p2-2---------------5-2-5--- 
|------------0-0-----------------|------------0-0-5-0-3-0--------- 
|--------------------------------|-------------------------------- 
 1 e & a 2 e & a 3 e & a 4 e & a  1 e & a 2 e & a 3 e & a 4 e & a 
 
 
 
 
|--------------------------------|| 
|--------------------------------|| 
|2-------------------------------|| 
|--------------------------------|| 
|--------------------------------|| 
|--------------------------------|| 
 1 e & a 2 e & a 3 e & a 4 e & a   
 
 
Note: There are lots of bends in this song. 
      The only way to get them right is to listen to the song and 
      figure out exactly how to play them. 
 
 
|--------------------- 
|--------------------- 
|--------------------- 
|--------------------- 
|---3-^-^-^-^--------- This is a long sustained bend 
|--------------------- 
 
      |full tone| 
|--17----------------- 
|------^-15----------- This string is already bent at fret 15. When  
|--------------------- the 17 is played the b string is slowly  
|--------------------- released. 
|--------------------- 
|--------------------- 
 
 

		  

See also:

tabs Paul Wilbur - Adonai tabs 12-Stones - The Way I Feel (V.2) tabs Vineyard - Senhor Te Quero - Intro tabs 12-Stones - Stay tabs Flatt & Scruggs - Cripple Creek tabs 12-Stones - In my head
e-chords

Other versions:

tabs Petra - Midnight oil
auto scroll beats size up size down change color hide chords drawings
tab show chords e-chords YouTube Clip e-chords hide all tabs e-chords go to top tab

share