Petra

Last daze

Petra

tabs

by  EDUARDO_LYVIO

save to print version add songbook text version e-mail correct tuner
chordsukulelecavacokeyboardtabbassdrumsharmonicaflute Guitar Pro
close

there isn't a video lesson for this song

chords

Last daze

	  		Symbols : 
---------- 
 
h - hammer on 
RH - right hammer ("strumming" hand) 
p - pull off 
b - bend up 
r - release bend 
/ - slide up (or strum chord again) 
\ - slide down 
~ - vibrato  
x - muted, struck string 
* - harmonic (natural harmonic at fret #) 
<*> - pick harmonic 
vbd - vibrato bar depressed (lower pitch) 
vbu - vibrato bar release (after depressed) 
() - optional note 
| - repeat 
 
 
 
 
 
INTRO 
 
E|----------------------------------------------------------------- 
B|----------------------------------------------------------------- 
G|------------5------4------5\-------------5------4------0-2~------ 
D|------------7------5------7\-------------5------5------0-2~------ 
A|x---0---00-----00-----00---------0---00-----00-----00------------ 
E|----------------------------------------------------------------- 
 
 
 
 
E|----------------------------------------------------------------- 
B|----------------------------------------------------------------- 
G|-------5------4------5\-------------0------5/7~------------------ 
D|-------7------5------7\-------------0------5/7~------------------ 
Ax---0-----00-----00---------0---00-----00------------------------ 
E|----------------------------------------------------------------- 
 
 
 
VERSE 1 
 
1.  Somewhere in the darkest night a stranger has lost the way 
    Cold wind and a distant light has carried his heart away 
    Some say he was one of us, a prodigal gone astray 
    But inside he's as cold as ice to the truth that he won't obey 
 
2.  Cold chills when the Spirit speaks that some shall depart  
    from the faith 
    All ends in calamity just when they thought is was safe 
 
   repeat 4 times, 1st verse;  twice 2nd verse 
E|-|---------------------------------------------------------------| 
B|-|---------------------------------------------------------------| 
G|-|----------2-------------------------------------------------2--| 
D|-|-5--------2------------5---5-------------7--7--------5------2--| 
A|-|-3--0-----0----0---0-2-3---3-----3-0-0-3-5--5----3-0-3-0----0--| 
E|-|-------3---------3---------------------------------------3-----| 
 
 
 
           1. He won't discern --     the point of no return 
           2. They followed the lies- the fables men devise 
E|----------------------------------------------------------------- 
B|----------------------------3------------------------------------ 
G|----------------------------2------------------------------------ 
D|------2-2-3-3-----5--5------0-----3-3-----5--5------3----5---5--- 
A|------0-0-1-1-3/5-3--3------0-----1-1-3/5-3--3--1-0-1-3--3---3--- 
E|-----------------------6-5-(1)------------------------1-------0-- 
 
 
Chorus 
 
  In the last daze the final haze 
        F     G   /  /      Am  G /  
 
 
  There was strong delusion to believe a lie.  In the 
E|---------------------------------------------------- 
B|---------------------------------------------------- 
G|---------------------------------------------------- 
D|-----------------------------------------2----2----- 
A|--0-----3--------------------------3--2--0----0----- 
E|-----3----0--1--3--1~-----3--1--0---------------0--- 
 
 
   last daze before the blaze 
  F     G   /  /    Am   G  /  
 
 
E|-------- 
B|-------- 
G|-------- 
D|-------- 
A|-------- 
E|--1-0--- 
 
 
  They couldn't see beyond their  
 Dm    /        F    /  
 
 
   misty trance 
E|------------------------ 
B|------------------------ 
G|------------------------ 
D|------------5-5--5/----- 
A|-----2-3-5--3-2--------- 
E|---3-----3-------3/-----   
 
 
  To grab the truth and have a fighting chance 
 Dm  /        Bb     /         F   /    C   / 
 
  In the last daze... 
 (over "intro" 1st and 3rd Chorus; no chord 2nd Chorus- keyboard) 
 
   (guitar and keyboard arr. for guitar; 1st Chorus only) 
E|--8---7--8---12--10--8---7--10--8-------------------------------- 
B|--10--8--10--13--12--10--8--12--10------------------------------- 
G|-------------------------------------9~---9-7---vbd-------------- 
D|----------------------------------------------------------------- 
A|----------------------------------------------------------------- 
E|----------------------------------------------------------------- 
 
 
E|--8---7--8---12--10--8---7--10--8-------------------------------- 
B|--10--8--10--13--12--10--8--12--10---12-13-<*>15---<*>12--vbd---- 
G|----------------------------------------------------------------- 
D|----------------------------------------------------------------- 
A|----------------------------------------------------------------- 
E|----------------------------------------------------------------- 
 
VERSE 2 
 
2nd Chorus 
 
LEAD 
 
(over "intro"; fade in last 1/16 of 2 with frenetic 16th notes) 
E|-------------------------------------17--17-17-17-17-17-17-17-17- 
B|-------------------------------------17--17-17-17-17-17-17-17-17- 
G|----------------------------------------------------------------- 
D|----------------------------------------------------------------- 
A|----------------------------------------------------------------- 
E|----------------------------------------------------------------- 
 
 
 
 
E|-17\------------------------------------------------------------- 
B|-17\------------------------------------------------------------- 
G|--------5-----4------5\---------5------4------4\----------------- 
D|--------7-----5------7\---------5------5------5\(2)/4---4\-0----- 
Ax----00----00-----00------0--00----00-----00-------/5---5\-0----- 
E|----------------------------------------------------------------- 
 
 
 
 
E|----------------------------------------------------------------- 
B|----------------------------------------------------------------- 
-----------5------4------5\----------0------5/-7--7/---10~-------- 
D|----------7------5------7\----------0------5/-7--7/---10~-------- 
Ax0---00-----00-----00------0---00-----00------------------------- 
E|----------------------------------------------------------------- 
 
 
 
           Am                       G                              
E|---18b20--18b20r18p15------17~---15------------------------------ 
B|------------------------17---------17\15--13--15--12-13---------- 
G|--------------------------------------------14--14------14~------ 
D|----------------------------------------------------------------- 
A|----------------------------------------------------------------- 
E|----------------------------------------------------------------- 
 
 
 
          F                                                        
E|----------------------------------17-19-20-19p17----------------- 
B|----------------------------13-15----------------20-18-17-------- 
G|----------------------14-16------------------------------<*>19~-- 
D|---------------x14-15-------------------------------------------- 
A|---------x15-17-------------------------------------------------- 
E|---x15-17-------------------------------------------------------- 
 
 
 
          G                Am                                      
E|---12h13h15p13p12---------7h8h10p8p7--------5p0-7p0-8p0-10p0----- 
B|------------------15p12--------------10p8------------------------ 
G|----------------------------------------------------------------- 
D|----------------------------------------------------------------- 
A|----------------------------------------------------------------- 
E|----------------------------------------------------------------- 
 
 
 
    G             F                               E         G      
E|----------------------------------------------------------------- 
B|-<*>8~-p7p6p5\3~\------------------------------------------*5-vbd 
G|------------------------------------------2-4-5------------*5-vbd 
D|---------------------------x2h3h5----2-3---------2vbd-/5vbu*5-vbd 
A|----------------------x2h3h5-----2-3----------------------------- 
E|-----------------x1h3h5------------------------------------------ 
 
 
 
   
BRIDGE 
 
   Some  say  it's a certainty,     a sign of the times I am told 
Dm                   Gm7              C                      Dm 
   (over bridge with rapid tremolo picking) 
E|----------------------------------------------------------------- 
B|--10----15----17----18--17--15--10---13---------------------10--- 
G|----------------------------------------------------------------- 
D|----------------------------------------------------------------- 
A|----------------------------------------------------------------- 
E|----------------------------------------------------------------- 
 
                 Dm 
E|----------------5--- 
B|----------------6--- 
G|----------------7---   
D|---5/7\5--3p0---7--- 
A|---5/7\5--3p0---5---   
E|----------------5--- 
 
 
 
  But I weep for the souls of those who will  
                     Gm7 
E|----------------------------------------------- 
B|--10----15----17----18---17---15---10---------- 
G|----------------------------------------------- 
D|----------------------------------------------- 
A|----------------------------------------------- 
E|----------------------------------------------- 
 
 
   never return to the    fold...          
   #C                     #D               
E|----------------------------------------------- 
B|--14----13----11----9----16----14----13----11-- 
G|----------------------------------------------- 
D|----------------------------------------------- 
A|----------------------------------------------- 
E|----------------------------------------------- 
 
 
  never return to the fold!! 
  Dm      F           G //// 
 
 
 
3rd Chorus 
 
 
OUTRO 
 
E|--15b17~-----15-13-12h13p12--------------------------------------- 
B|----------------------------15---12h13p12------------------------- 
G|-------------------------------------------14-12-14~--\----------- 
D|------------------------------------------------------------------ 
A|------------------------------------------------------------------ 
E|------------------------------------------------------------------ 
 
 
                                         3 times 
E|-----12h13RH15p13RH15p13p12p10-|-RH15p13RH15p13p12p10--|---------- 
B|-------------------------------|-----------------------|---------- 
G|-------------------------------|-----------------------|---------- 
D|-------------------------------|-----------------------|---------- 
A|-------------------------------|-----------------------|---------- 
E|-------------------------------|-----------------------|---------- 
 
 
                   2 times 
E|-|--------------------------------------------|------------------- 
B|-|-RH17p15RH17p15p13p12--RH17p15RH17p15p13p12-|------------------- 
G|-|--------------------------------------------|--14~--14\12------- 
D|-|--------------------------------------------|-------------12~\-- 
A|-|--------------------------------------------|------------------- 
E|-|--------------------------------------------|------------------- 
 
 
                   1/4 bend 
E|------|----------------------------------|-------------- 
B|------|----------13b---------------------|-------------- 
G|------|-------12-------------------------|---------7b9-- 
D|------|---/14-------12\--/10-------------|---7-7-5------ 
A|------|----------------------10--0---/12-|-------------- 
E|------|----------------------------------|-------------- 
 
 
Fade out on A minor blues pentatonic riffs mainly in 5th position. 
 
E|--5--8---- 
B|--5--8---- 
G|--5-78---- 
D|--5-7----- 
A|--567----- 
E|--5--8---- 
 

		  

Full key step upFull key step up
Half key step upHalf key step up
Half key step downHalf key step down
Full key step downFull key step down
hide glossary

See also:

tabs Paul Wilbur - Adonai tabs 12-Stones - The Way I Feel (V.2) tabs Vineyard - Senhor Te Quero - Intro tabs 12-Stones - Stay tabs Flatt & Scruggs - Cripple Creek tabs 12-Stones - In my head
e-chords

Other versions:

tabs Petra - Last daze
auto scroll beats size up size down change color hide chords drawings
tab show chords e-chords YouTube Clip e-chords hide all tabs e-chords go to top tab

share