Petra

Enter in

Petra

tabs Beginner beginner

by  EDUARDO_LYVIO

save to print version add songbook text version e-mail correct tuner
chordsukulelecavacokeyboardtabbassdrumsharmonicaflute Guitar Pro
close

there isn't a video lesson for this song

chords

Enter in

	  		Intro                                      ^=bend up 1/4 and then down 
|   |--------------------------------|--------------------------------| 
|T  |3---------------------------2---|----------------2^--------------| 
|A 4|2---------------------------2---|----------------2^----0-2-0-----| 
|B 4|----------------------2-0-------|--------------2-------------2-0-| 
|   |----------------2-0-------2-----|--------------------------------| 
|   |--------------------3-----------|--------------------------------| 
     1 e & a 2 e & a 3 e & a 4 e & a  1 e & a 2 e & a 3 e & a 4 e & a 
 
 
 
 
|   |--------------------------------|--------------------------------| 
|T  |--------------------------------|------------------------------3-| 
|A 4|--------------------------------|----------------242-0-0-2-0---2-| 
|B 4|----0-0-2-----------------------|----0-0-2-------------------2---| 
|   |----------------4-----5-----5---|--------------------------------| 
|   |0-------------0---0-0-----0-----|0-------------------------------| 
     1 e & a 2 e & a 3 e & a 4 e & a  1 e & a 2 e & a 3 e & a 4 e & a 
 
 
 
 
|   |--------------------------------|--------------------------------| 
|T  |----------------------------2---|----------------3-3-2-3---2-----| 
|A 4|----------------------------2---|----------------2-2-2-2---2-2---| 
|B 4|----------------------2-0-------|--------------2-------------2-0-| 
|   |----------------2-0-------2-----|--------------------------------| 
|   |--------------------3-----------|--------------------------------| 
     1 e & a 2 e & a 3 e & a 4 e & a  1 e & a 2 e & a 3 e & a 4 e & a 
 
 
 
 
|   |--------------------------------|--------------------------------| 
|T  |--------------------------------|----------------3-------------3-| 
|A 4|--------------------------------|----------------2-----2-------2-| 
|B 4|----0-0-2-----------------------|----0-0-2-------------2---------| 
|   |----------------4-----5-----5---|--------------------------------| 
|   |0-------------0---0-0-----0-----|0-------------------------------| 
     1 e & a 2 e & a 3 e & a 4 e & a  1 e & a 2 e & a 3 e & a 4 e & a 
 
 
 
Verse 
|   |--------------------------------|--------------------------------| 
|T  |----------------------------2---|--------------------------------| 
|A 4|----------------------------2---|--------------------------------| 
|B 4|--------------------------------|--------------------------------| 
|   |--------------------------------|--------------------------------| 
|   |--------------------------------|---------------------------12\\\| 
     1 e & a 2 e & a 3 e & a 4 e & a  1 e & a 2 e & a 3 e & a 4 e & a 
     Once a year for sacrifice        just when priests could pay the price 
 
 
                                           ^=bend up 1/4 and then down     
|   |--------------------------------|--------------------------------| 
|T  |--------------------------------|----------------2^------------3-| 
|A 4|--------------------------------|----------------2^----0h2p0---2-| 
|B 4|----0---2-----------------------|----0---2-----2-------------2---| 
|   |----------------4-----5-----5---|--------------------------------| 
|   |0-------------0---0-0-----0-----|0-------------------------------| 
     1 e & a 2 e & a 3 e & a 4 e & a  1 e & a 2 e & a 3 e & a 4 e & a 
     And step inside the inner veil to make the people free 
 
 
 
|   |--------------------------------|--------------------------------| 
|T  |----------------------------2---|--------------------------------| 
|A 4|----------------------------2---|--------------------------------| 
|B 4|--------------------------------|--------------------------------| 
|   |--------------------------------|--------------------------------| 
|   |--------------------------------|---------------------------12\\\| 
     1 e & a 2 e & a 3 e & a 4 e & a  1 e & a 2 e & a 3 e & a 4 e & a 
     Temple stood the same for years  till the Nazarene appears 
 
 
                                           ^=bend up 1/2 and then down 
|   |--------------------------------|--------------------------------| 
|T  |--------------------------------|--------------------------------| 
|A 4|--------------------------------|----------------2^----0h2-------| 
|B 4|----0---2-----------------------|----0---2-----2-----------------| 
|   |----------------4-----5-----5---|--------------------------------| 
|   |0-------------0---0-0-----0-----|0-------------------------------| 
     1 e & a 2 e & a 3 e & a 4 e & a  1 e & a 2 e & a 3 e & a 4 e & a 
     Things will never be the same since 33 A.D. 
 
 
Bridge 
|   |--------------------------------|--------------------------------| 
|T  |--------------------------------|--------------------------------| 
|A 4|4-------2---4---2---4-------2---|5-------4---5---4---2-------2---| 
|B 4|2-------2---2---2---2-------2---|2-------2---2---2---2-------2---| 
|   |--------------------------------|--------------------------------| 
|   |--------------------------------|--------------------------------| 
     1 e & a 2 e & a 3 e & a 4 e & a  1 e & a 2 e & a 3 e & a 4 e & a 
     When He spoke and bowed His head He who saved the world was dead 
 
 
 
|   |--------------------------------|--------------------------------| 
|T  |--------------------------------|--------------------------------| 
|A 4|4-------2---4---2---4-------2---|5-------4---5---4---2-------2---| 
|B 4|2-------2---2---2---2-------2---|2-------2---2---2---2-------2---| 
|   |--------------------------------|--------------------------------| 
|   |--------------------------------|--------------------------------| 
     1 e & a 2 e & a 3 e & a 4 e & a  1 e & a 2 e & a 3 e & a 4 e & a 
     Then the earth began to shake    Heaven's walls began to break 
 
 
 
|   |--------------------------------|------------------------8-------| 
|T  |--------------------------------|----------------10------10------| 
|A 4|4-------2---4---2---4-------2---|--------10------10--------------| 
|B 4|2-------2---2---2---2-------2---|10------10----------------------| 
|   |--------------------------------|8-------------------------------| 
|   |--------------------------------|--------------------------------| 
     1 e & a 2 e & a 3 e & a 4 e & a  1 e & a 2 e & a 3 e & a 4 e & a 
     O--pening  the  Holy place   The temple veil was torn in two  The 
 
 
 
|   |------------------------10------| 
|T  |----------------12------12------| 
|A 4|--------12------12--------------| 
|B 4|12------12----------------------| 
|   |10------------------------------| 
|   |--------------------------------| 
     1 e & a 2 e & a 3 e & a 4 e & a   
     way is clear for me and you   
 
 
Chorus 
|   |--------------------------------|--------------------------------| 
|T  |--------------------------------|--------------------------------| 
|A 4|--------------------------------|--------------------------------| 
|B 4|--------------------------------|--------------------------------| 
|   |7-----------7--(7)--7---7-------|3----------(3)--3-3-5---5-------| 
|   |5-----------5---8p5-5---5-------|1----------(1)--1-1-1---1-------| 
     1 e & a 2 e & a 3 e & a 4 e & a  1 e & a 2 e & a 3 e & a 4 e & a 
We can en---ter  in,                  en----ter   in 
 
 
 
|   |3---------------3---------------|1-------------------------------| 
|T  |3---------------5---------------|1-------------------------------| 
|A 4|4---------------5---------------|2-------------------------------| 
|B 4|5---------------5---------------|3-------------------------------| 
|   (5)-------------(3)--------------(3)------------------------------| 
|   (3)------------------------------(1)------------------------------| 
     1 e & a 2 e & a 3 e & a 4 e & a  1 e & a 2 e & a 3 e & a 4 e & a 
     Into  Heaven's  Ho----ly    place 
 
 
 
|   |--------------------------------|--------------------------------| 
|T  |--------------------------------|--------------------------------| 
|A 4|--------------------------------|--------------------------------| 
|B 4|--------------------------------|--------------------------------| 
|   |7-----------7--(7)--7---7-------|3----------(3)--3-3-5---5-------| 
|   |5-----------5---8p5-5---5-------|1----------(1)--1-1-1---1-------| 
     1 e & a 2 e & a 3 e & a 4 e & a  1 e & a 2 e & a 3 e & a 4 e & a 
We can en---ter  in,                  en----ter   in 
 
 
 
|   |1-------------------------------|3-------------------------------| 
|T  |1-------------------------------|3-------------------------------| 
|A 4|2-------------------------------|4-------------------------------| 
|B 4|3-------------------------------|5-------------------------------| 
|   (3)------------------------------(5)------------------------------| 
|   (1)------------------------------(3)------------------------------| 
     1 e & a 2 e & a 3 e & a 4 e & a  1 e & a 2 e & a 3 e & a 4 e & a 
     Boldly  by His blood we can   ap-proach His throne of grace  We can 
 
 
 
|   |--------------------------------|--------3---3---3---------------| 
|T  |--------------------------------|--------3---3---3---------------| 
|A 4|------------------------5-------|-------(4)-(4)-(4)--------------| 
|B 4|3-----------------------5-------|5-------------------------------| 
|   |3-----------------------3-------|5-------------------------------| 
|   |1-------1---1---1---1-----------|3-------------------------------| 
     1 e & a 2 e & a 3 e & a 4 e & a  1 e & a 2 e & a 3 e & a 4 e & a 
     enter   in  a   new and liv-ing  Way                      By our 
 
 
 
|   |--------------------------------|--------3---3---3---------------| 
|T  |--------------------------------|--------3---3---3---------------| 
|A 4|------------------------5-------|-------(4)-(4)-(4)--------------| 
|B 4|3-----------------------5-------|5-------------------------------| 
|   |3-----------------------3-------|5-------------------------------| 
|   |1-------1---1---1---1-----------|3-------------------------------| 
     1 e & a 2 e & a 3 e & a 4 e & a  1 e & a 2 e & a 3 e & a 4 e & a 
     faith He will receive us when we pray 
 
 
Alternate Intro 
|   |--------------------------------|--------------------------------| 
|T  |3-----------------------------2-|----------------2---------------| 
|A 4|2---------------2-4-2-0---0---2-|----------------2-----0-2-0-----| 
|B 4|------------------------2---2---|----------------------------2-0-| 
|   |--------------------------------|--------------------------------| 
|   |--------------------------------|--------------------------------| 
     1 e & a 2 e & a 3 e & a 4 e & a  1 e & a 2 e & a 3 e & a 4 e & a 
 
 
 
 
|   |--------------------------------|--------------------------------| 
|T  |--------------------------------|----------------2^------------3-| 
|A 4|--------------------------------|----------------2^----0h2p0---2-| 
|B 4|----0-0-2-----------------------|----0-0-2-----2-------------2---| 
|   |----------------4-----5-----5---|--------------------------------| 
|   |0-------------0---0-0-----0-----|0-------------------------------| 
     1 e & a 2 e & a 3 e & a 4 e & a  1 e & a 2 e & a 3 e & a 4 e & a 
 
 
 
-Verse- 
Now without a second look we forget what all it took 
To be seen as innocent by His Holy eyes 
Never thinking foolishly there is something He won't see 
For our lack of righteousness there is no disguise 
 
-Bridge- 
He won't look the other Way 
Someone's life will have to pay 
Once for all it has been done 
Taken out upon His Son 
He remembers it no more 
Now for us He is the door 
Opened up forevermore 
 
-Chorus- 
 
Solo 
|   |---------------12---------------|--------------------------------| 
|T  |-------------------15--14--15---|-------14------12---------------| 
|A 4|-------14-----------------------|-----------------------14-------| 
|B 4|14------------------------------|--------------------------------| 
|   |--------------------------------|--------------------------------| 
|   |--------------------------------|--------------------------------| 
     1 e & a 2 e & a 3 e & a 4 e & a  1 e & a 2 e & a 3 e & a 4 e & a 
 
 
 
 
 
|   |--------------------------------|--------------------------------| 
|T  |--------------------------------|--------------------------------| 
|A 4|--------------------------------|--------------------------------| 
|B 4|12----------11h12p11------------|10/////12--12-------------------| 
|   |--------------------14--12------|--------------------------------| 
|   |--------------------------------|--------------------------------| 
     1 e & a 2 e & a 3 e & a 4 e & a  1 e & a 2 e & a 3 e & a 4 e & a 
 
 
 
 
 
|   |---------------12---------------|--------------------------------| 
|T  |-------------------15--14--15---|-------14------12---------------| 
|A 4|-------14-----------------------|-----------------------14-------| 
|B 4|14------------------------------|--------------------------------| 
|   |--------------------------------|--------------------------------| 
|   |--------------------------------|--------------------------------| 
     1 e & a 2 e & a 3 e & a 4 e & a  1 e & a 2 e & a 3 e & a 4 e & a 
 
 
 
 
 
|   |----------------------------------------------------------------| 
|T  |----------------------------------------------------------------| 
|A 4|----------------------------------------------------------------| 
|B 4|12-------------------------11-h-12p11---------------------------| 
|   |----------------------------------------14------12--------------| 
|   |----------------------------------------------------------------| 
     1   e   &   a   2   e   &   a   3   e   &   a   4   e   &   a   
 
 
 
 
 
|   |----------------------------------------------------------------| 
|T  |----------------------------------------------------------------| 
|A 4|----------------------------------------------------------------| 
|B 4|--------------------12------------------------------------------| 
|   |15--14--15--14--15------15--14--15--14--12----------------------| 
|   |--------------------------------------------15------------------| 
     1   e   &   a   2   e   &   a   3   e   &   a   4   e   &   a   
 
 
 
 
 
|   |----------------------------------------------------------------| 
|T  15-13-12-13--12------12------------------------------------------| 
|A 4|----------------14------14--12--14--12--11--12--11--------------| 
|B 4|----------------------------------------------------12----------| 
|   |----------------------------------------------------------------| 
|   |----------------------------------------------------------------| 
     1   e   &   a   2   e   &   a   3   e   &   a   4   e   &   a   
 
 
 
 
 
Bridge 
|   |--------------------------------|--------------------------------| 
|T  |--------------------------------|--------------------------------| 
|A 4|4-------2---4---2---4-------2---|5-------4---5---4---------------| 
|B 4|2-------2---2---2---2-------2---|2-------2---2---2---0-0-0---0-2-| 
|   |--------------------------------|--------------------------2-----| 
|   |--------------------------------|--------------------------------| 
     1 e & a 2 e & a 3 e & a 4 e & a  1 e & a 2 e & a 3 e & a 4 e & a 
 
 
 
 
|   |--------------------------------|--------------------------------| 
|T  |--------------------------------|--------------------------------| 
|A 4|4-------2---4---2---4-------2---|5-------4---5---4---0-0-0---0-2-| 
|B 4|2-------2---2---2---2-------2---|2-------2---2---2---------2-----| 
|   |--------------------------------|--------------------------------| 
|   |--------------------------------|--------------------------------| 
     1 e & a 2 e & a 3 e & a 4 e & a  1 e & a 2 e & a 3 e & a 4 e & a 
 
 
 
 
|   |--------------------------------|--------------------------------| 
|T  |--------------------------------|--------------------------------| 
|A 4|4-------2---4---2---4-------2---|--------10---9-10-9-------------| 
|B 4|2-------2---2---2---2-------2---|10------10---------12-10--------| 
|   |--------------------------------|8-------------------------------| 
|   |--------------------------------|--------------------------------| 
     1 e & a 2 e & a 3 e & a 4 e & a  1 e & a 2 e & a 3 e & a 4 e & a 
 
 
 
 
|   |--------------------------------| 
|T  |--------------------------------| 
|A 4|12------12------12------12------| 
|B 4|12------12--(12)12------12------| 
|   |10------------------------------| 
|   |--------------------------------| 
     1 e & a 2 e & a 3 e & a 4 e & a   
 
 
 
-Chorus- 
We can enter in, enter in 
We can enter in His gate with thankfulness and praise 
Into the once forbidden Holy place 
We can live in goodness and in mercy all our days 
We can enter in a new and living Way 
By our faith He will receive us when we pray 
We don't have to be afraid to seek His face 
We can enter in. 
 
 

		  

See also:

tabs Desperation band - Promises tabs Audio Adrenaline - Man of God tabs Casting Crowns - Who Am I tabs Flatt & Scruggs - Dueling Banjos tabs Jars of Clay - Frail tabs Caedmon's Call - April Showers
e-chords

Other versions:

tabs Petra - Enter in
auto scroll beats size up size down change color hide chords drawings
tab show chords e-chords YouTube Clip e-chords hide all tabs e-chords go to top tab

share