Peter Mayer

God Is A River

Peter Mayer

tabs

by  HEBEALMEIDA

save to print version add songbook text version e-mail correct tuner
chordsukulelecavacokeyboardtabbassdrumsharmonicaflute Guitar Pro
close

there isn't a video lesson for this song

chords

God Is A River

	  		Tabbed by: Daniel Call 

 
 

Drop-D tuning 

This is a blend of the recording on Midwinter and this live event:  
https://www.youtube.com/watch?v=gOdN-TGnTOc 


Intro 
e|----------------|----------------|----------------|----------------| 
B|----------1-----|----------3-----|----------3-----|----------3-----| 
G|------4-------4-|------2-------2-|------0-------0-|------2-------2-| 
D|----2-------2---|----0-------0---|----0-------0---|----0-------0---| 
A|0-------0-------|2-------2-------|3-------3-------|2-------2-------| x3 
D|----------------|----------------|----------------|----------------| 

e|----------------|----------------|----------------|----------------| 
B|----------1-----|----------3-----|----------3-----|----------3-----| 
G|------4-------4-|------2-------2-|------0-------0-|------2-------2-| 
D|----2-------2---|----0-------0---|----0-------0---|----0-------0---| 
A|0-------0-------|2-------2-------|3-------3-------|2-------2-------| 
D|----------------|----------------|----------------|----------------| 

                                                           In the  

verse 1 
e|----------------|----------------|----------------|----------------| 
B|----------1-----|----------3-----|----------3-----|----------3-----| 
G|------4-------4-|------2-------2-|------0-------0-|------2-------2-| 
D|----2-------2---|----0-------0---|----0-------0---|----0-------0---| 
A|0-------0-------|2-------2-------|3-------3-------|2-------2-------| 
D|----------------|----------------|----------------|----------------| 

  ever-shifting    water of the     river of this   life      I was 

e|----------------|----------------|----------------|----------------| 
B|----------1-----|----------3-----|----------3-----|----------3-----| 
G|------4-------4-|------2-------2-|------0-------0-|------2-------2-| 
D|----2-------2---|----0-------0---|----0-------0---|----0-------0---| 
A|0-------0-------|2-------2-------|3-------3-------|2-------2-------| 
D|----------------|----------------|----------------|----------------| 

  swimming, seeking comfort;  I was wrestling waves to find       A 

e|----------------|----------------|----------------|--------------0-| 
B|----------1-----|----------3-----|----------3-----|----------0-----| 
G|------4-------4-|------2-------2-|------0-------0-|------0---------| 
D|----2-------2---|----0-------0---|----0-------0---|----2-------2---| 
A|0-------0-------|2-------2-------|3-------3-------|4-------4-------| 
D|----------------|----------------|----------------|----------------| 

  boulder I could cling to,       a stone to hold me fast 

e|----------------|----------------|----------------|----------------| 
B|----------0-----|----------3-----|----------3-----|----------0-----| 
G|------0-------0-|------0-------0-|------0-------0-|------0-------0-| 
D|----2-------2---|----0-------0---|----0-------0---|----0-------0---| 
A|4-------4-------|2-------2-------|3-------3-------|----------------| 
D|----------------|----------------|----------------|2-------2-------| 

         Where I'd let the fretful water of this     river round me  

e|--------------0-|----------------|--------------0-|----------------| 
B|----------3-----|----------3---2-|----------2-----|----------------| 
G|------0---------|------0---------|------0---------|----------------| 
D|----2-------2---|----2-------2---|----2-------2---|----------------| 
A|0-------0-------|0-------0-------|0-------0-------|----------------| 
D|----------------|----------------|----------------|----------------| 

  pass                                                           And 

verse 2 
e|----------------|----------------|----------------|----------------| 
B|----------1-----|----------3-----|----------3-----|----------3-----| 
G|------4-------4-|------2-------2-|------0-------0-|------2-------2-| 
D|----2-------2---|----0-------0---|----0-------0---|----0-------0---| 
A|0-------0-------|2-------2-------|3-------3-------|2-------2-------| 
D|----------------|----------------|----------------|----------------| 

  so I found an    anchor, a        blessed resting  place   A trusty  

e|----------------|----------------|----------------|----------------| 
B|----------1-----|----------3-----|----------3-----|----------3-----| 
G|------4-------4-|------2-------2-|------0-------0-|------2-------2-| 
D|----2-------2---|----0-------0---|----0-------0---|----0-------0---| 
A|0-------0-------|2-------2-------|3-------3-------|2-------2-------| 
D|----------------|----------------|----------------|----------------| 

  rock I called my savior, for      there I would be safe    From the 

e|----------------|----------------|----------------|--------------0-| 
B|----------1-----|----------3-----|----------3-----|----------0-----| 
G|------4-------4-|------2-------2-|------0-------0-|------0---------| 
D|----2-------2---|----0-------0---|----0-------0---|----2-------2---| 
A|0-------0-------|2-------2-------|3-------3-------|4-------4-------| 
D|----------------|----------------|----------------|----------------| 

  river and its    dangers, and I pro-claimed my rock divine 

e|----------------|----------------|----------------|----------------| 
B|----------0-----|----------3-----|----------3-----|----------0-----| 
G|------0-------0-|------0-------0-|------0-------0-|------0-------0-| 
D|----2-------2---|----0-------0---|----0-------0---|----0-------0---| 
A|4-------4-------|2-------2-------|3-------3-------|----------------| 
D|----------------|----------------|----------------|2-------2-------| 

            And I prayed to it  pro-tect me            and the rock re- 

e|--------------0-|----------------|--------------0-|----------------| 
B|----------3-----|----------3---2-|----------2-----|3-------2-------| 
G|------0---------|------0---------|------0---------|----------------| 
D|----2-------2---|----2-------2---|----2-------2---|4-------2-------| 
A|0-------0-------|0-------0-------|0-------0-------|----------------| 
D|----------------|----------------|----------------|----------------| 

  plied                                              God     is     a 

Chorus 
e|--------------5-|----------------|--------------5-|----------------| 
B|----------3-----|----------3-----|----------2-----|----------2-----| 
G|------2---------|------2-------2-|------2---------|------2-------2-| 
D|----4-------4---|----4-------4---|----2-------2---|----2-------2---| 
A|----------------|----------------|0-------0-------|0-------0-------| 
D|0-------0-------|0-------0-------|----------------|----------------| 

  river,                 not just a stone                     God is a  

e|--------------3-|----------------|--------------0-|--------------0-| 
B|----------2-----|----------2-----|----------3-----|----------3-----| 
G|------2---------|------2-------2-|------2---------|------2---------| 
D|----2-------2---|----2-------2---|----4-------4---|----0-------0---| 
A|0-------0-------|0-------0-------|----------------|----------------| 
D|----------------|----------------|0-------0-------|4-------4-------| 

  wild, raging     rapids     And a slow, meandering flow.    God is a  

e|--------------0-|----------------|----------------|----------------| 
B|----------3-----|----------3-----|----------2-----|--3-------3-----| 
G|------0---------|------0---------|------2---------|------4-------4-| 
D|----0-------0---|----0-------0---|---2--------2---|----4-------4---| 
A|----------------|----------------|----------------|2-------0-------| 
D|5-------5-------|5-------5-------|4-------4-------|----------------| 

  deep and narrow passage    And a peaceful, sandy   shoal   God is the  

e|--------------0-|----------------|----------------| 
B|----------3-----|----------3-----|2---------------| 
G|------0---------|------2-------2-|----------------| 
D|----0-------0---|----2-------2---|----------------| 
A|----------------|0-------0-------|0---------------| 
D|5-------5-------|----------------|----------------| 

  river, swimmer                           So let go 

Instrumental 
e|----------------|----------------|----------------|----------------| 
B|1---------1-----|----------3-----|----------3-----|----------3-----| 
G|------4-------4-|------2-------2-|------0-------0-|------2-------2-| 
D|----2-------2---|----0-------0---|----0-------0---|----0-------0---| 
A|0-------0-------|2-------2-------|3-------3-------|2-------2-------| 
D|----------------|----------------|----------------|----------------| 


e|----------------|----------------|----------------|----------------| 
B|----------1-----|----------3-----|----------3-----|----------3-----| 
G|------4-------4-|------2-------2-|------0-------0-|------2-------2-| 
D|----2-------2---|----0-------0---|----0-------0---|----0-------0---| 
A|0-------0-------|2-------2-------|3-------3-------|2-------2-------| 
D|----------------|----------------|----------------|----------------| 


                                                              Still I 
verse 3 
e|----------------|----------------|----------------|----------------| 
B|----------1-----|----------3-----|----------3-----|----------3-----| 
G|------4-------4-|------2-------2-|------0-------0-|------2-------2-| 
D|----2-------2---|----0-------0---|----0-------0---|----0-------0---| 
A|0-------0-------|2-------2-------|3-------3-------|2-------2-------| 
D|----------------|----------------|----------------|----------------| 

  clung to my rock tightly with con-viction in my    arms     Never 

e|----------------|----------------|----------------|----------------| 
B|----------1-----|----------3-----|----------3-----|----------3-----| 
G|------4-------4-|------2-------2-|------0-------0-|------2-------2-| 
D|----2-------2---|----0-------0---|----0-------0---|----0-------0---| 
A|0-------0-------|2-------2-------|3-------3-------|2-------2-------| 
D|----------------|----------------|----------------|----------------| 

  looking at the   stream to keep my mind from thoughts of harm  But the 

e|----------------|----------------|----------------|--------------0-| 
B|----------1-----|----------3-----|----------3-----|----------0-----| 
G|------4-------4-|------2-------2-|------0-------0-|------0---------| 
D|----2-------2---|----0-------0---|----0-------0---|----2-------2---| 
A|0-------0-------|2-------2-------|3-------3-------|4-------4-------| 
D|----------------|----------------|----------------|----------------| 

  river kept on    coming, kept on tugging at my     legs 

e|----------------|----------------|----------------|----------------| 
B|----------0-----|----------3-----|----------3-----|----------0-----| 
G|------0-------0-|------0-------0-|------0-------0-|------0-------0-| 
D|----2-------2---|----0-------0---|----0-------0---|----0-------0---| 
A|4-------4-------|2-------2-------|3-------3-------|----------------| 
D|----------------|----------------|----------------|2-------2-------| 

          Till at last my fingers   faltered, and    I was swept a- 

e|--------------0-|----------------|--------------0-|----------------| 
B|----------3-----|----------3---2-|----------2-----|----------------| 
G|------0---------|------0---------|------0---------|----------------| 
D|----2-------2---|----2-------2---|----2-------2---|----------------| 
A|0-------0-------|0-------0-------|0-------0-------|----------------| 
D|----------------|----------------|----------------|----------------| 

  way                                                          So I'm 

verse 4 
e|----------------|----------------|----------------|----------------| 
B|--------0-------|----------------|--------2-------|--------3-------| 
G|--------0-------|--------2-------|--------2-------|--------4-------| 
D|----0-------0---|--------0-------|----2-------2---|----4-----------| 
A|----------------|----0-------0---|0---------------|2---------------| 
D|5---------------|0---------------|----------------|----------------| 

  going with the   flow now, these relentless twists and bends Accli- 

e|----------------|----------------|----------------|----------------| 
B|----------------|--------0-------|--------0-------|--------2-------| 
G|--------2-------|--------0-------|--------0-------|--------2-------| 
D|----0---0---0---|----0-------0---|----0-------0---|----2-------2---| 
A|----------------|----------------|----------------|0---------------| 
D|4---------------|5---------------|2---------------|----------------| 

  mating to the    motion, and a    sense of being   led      And this 


e|----------------|----------------|----------------|----------------| 
B|--------0-------|----------------|--------2-------|--------3-------| 
G|--------0-------|--------2-------|--------2-------|--------4-------| 
D|----0-------0---|--------0-------|----2-------2---|----4-----------| 
A|----------------|----0-------0---|0---------------|2---------------| 
D|5---------------|0---------------|----------------|----------------| 

  river's like my  body now, it     carries me a-    long  Through the 

e|----------------|----------------|----------------| 
B|----------------|--------0-------|--------0-------| 
G|--------2-------|--------0-------|--------0-------| 
D|----0---0---0---|----0-------0---|----0-------0---| 
A|----------------|----------------|----------------| 
D|4---------------|5---------------|2---------------| 

  ever-changing   scenery and by the rocks that sing 


e|--------------0-|----------------|--------------0-|----------------| 
B|----------3-----|----------3---2-|----------2-----|3-------2-------| 
G|------0---------|------0---------|------0---------|----------------| 
D|----2-------2---|----2-------2---|----2-------2---|4-------2-------| 
A|0-------0-------|0-------0-------|0-------0-------|----------------| 
D|----------------|----------------|----------------|----------------| 

  this             song                             God     is     a 

Chorus 
e|--------------5-|----------------|--------------5-|----------------| 
B|----------3-----|----------3-----|----------2-----|----------2-----| 
G|------2---------|------2-------2-|------2---------|------2-------2-| 
D|----4-------4---|----4-------4---|----2-------2---|----2-------2---| 
A|----------------|----------------|0-------0-------|0-------0-------| 
D|0-------0-------|0-------0-------|----------------|----------------| 

  river,                 not just a stone                     God is a  

e|--------------3-|----------------|--------------0-|--------------0-| 
B|----------2-----|----------2-----|----------3-----|----------3-----| 
G|------2---------|------2-------2-|------2---------|------2---------| 
D|----2-------2---|----2-------2---|----4-------4---|----0-------0---| 
A|0-------0-------|0-------0-------|----------------|----------------| 
D|----------------|----------------|0-------0-------|4-------4-------| 

  wild, raging     rapids     And a slow, meandering flow.    God is a  

e|--------------0-|----------------|----------------|----------------| 
B|----------3-----|----------3-----|----------2-----|--3-------3-----| 
G|------0---------|------0---------|------2---------|------4-------4-| 
D|----0-------0---|----0-------0---|---2--------2---|----4-------4---| 
A|----------------|----------------|----------------|2-------0-------| 
D|5-------5-------|5-------5-------|4-------4-------|----------------| 

  deep and narrow passage    And a peaceful, sandy   shoal  God is the 

e|--------------0-|----------------|----------------|----------------| 
B|----------3-----|----------3-----|----------3-----|3---------3-----| 
G|------0---------|------2-------2-|------4-------4-|------4-------4-| 
D|----0-------0---|----2-------2---|----4-------4---|----4-------4---| 
A|----------------|0-------0-------|2-------2-------|0-------0-------| 
D|5-------5-------|----------------|----------------|----------------| 

  river, swimmer          So let go                         God is the 

e|--------------0-|----------------|----------0-----|----------0-----| 
B|----------3-----|----------3-----|--------------0-|--------------2-| 
G|------0---------|------2-------2-|------2---------|------2---------| 
D|----0-------0---|----2-------2---|----2-------2---|----2-------2---| 
A|----------------|0-------0-------|0-------0-------|0-------0-------| 
D|5-------5-------|----------------|----------------|----------------| 

  river,          swimmer           

e|----------------|----------------|----------------|----------------| 
B|----------------|----------------|--------3-------|----------------| 
G|----------------|--------4-------|----2-------2---|--------2p0-----| 
D|----------------|--------0-------|0---------------|----2-----------| 
A|----------------|----5-----------|----------------|0-----------2---| 
D|----------------|5-----------0---|----------------|----------------| 

        So let go  

e|----------------|----------------|----------------|----------------| 
B|--------2h3-----|--------3-------|--------3-------|2-------2p3-----| 
G|----4---4-----0-|--------0-------|----2-------2---|2-------2-------| 
D|4-----------0---|----0-----------|0---------------|----------------| 
A|----------------|----------------|----------------|----0-----------| 
D|----------------|5-----------0---|----------------|------------0---| 

| /  slide up 
| \  slide down 
| h  hammer-on 
| p  pull-off 
| ~  vibrato 
| +  harmonic 
| x  Mute note 
		  

Full key step upFull key step up
Half key step upHalf key step up
Half key step downHalf key step down
Full key step downFull key step down
hide glossary

See also:

tabs Ira! - Envelheço na Cidade tabs Deep Purple - Smoke On Water tabs Ira! - Inundação de Amor tabs Deep Purple - Stormbringer tabs Deep Purple - Money Talks tabs Ira! - A vida por um fio
e-chords

Other versions:

tabs Peter Mayer - God Is A River
auto scroll beats size up size down change color hide chords drawings
tab show chords e-chords YouTube Clip e-chords hide all tabs e-chords go to top tab

share