Pete Murray

Tonic

Pete Murray

tabs

save to print version add songbook text version e-mail correct tuner
chordsukulelecavacokeyboardtabbassdrumsharmonicaflute Guitar Pro
close

there isn't a video lesson for this song

chords

Tonic

	  		tabbed by Brett Cook ([email protected]) 
 
 
Capo on the 2nd fret (notes relative to capo) 
 
 
I think there are two guitars, one mainly playing the bass notes and 
then a second playing the higher accents but this is tabbed so you can play  
it on one guitar. Doesn't sound as good but here goes... 
 
 
Fingerpick the verse with your thumb playing the bass notes 
and your index and middle finger plucking the G and B strings. 
One way to play it is to barre the 7th fret (actual 7th fret, since you're barring 
it, it doesn't matter if the capo is on or not) with your pointer then  
fret all other bass notes with your ring or little finger, whichever's most comfortable.  
After some practice you'll be able to play around with the rhythm a bit more and the high 
notes 
 
 
 
VERSE 
 
 
    1   +   2   +   3   +   4   +     1   +   2   +   3   +   4   +       RIGHT HAND 
e|----------------------------------|----------------------------------| 
b|--7-----------7-------7-----------|-7-----------7-------7------------|  middle 
g|--7-----------7-------7-----------|-7-----------7-------7------------|  index 
d|----------------------------------|---------------------0-h-2-p-0----|  thumb 
a|----------------------------------|-0-----------2--------------------|  thumb 
e|--7-----------7-h-10--10--7-h-10--|----------------------------------|  thumb 
     
 
 
     
OR you can play is like this (, notes relative to capo) 
 
 
    1   +   2   +   3   +   4   +     1   +   2   +   3   +   4   +     
e2|---------0-----------0-------0---|-0-----------0-------0-------0----| 
b2|---------1-----------1-------1---|-1-----------1-------1-------1----| 
g2|---------------------------------|---------------------0---2--------| 
d2|---------------------------------|-0-----------2--------------------| 
a2|-0-----------0---3---------------|----------------------------------| 
e2|---------------------------------|----------------------------------|     
 
 
 
Basic chorus (, notes relative to capo) 
 
 
    1   +   2   +   3   +   4   +     1   +   2   +   3   +   4   +     
e2|---------------------------------|---------------------------------| 
b2|---------------------------------|---------------------------------| 
g2|---------------------------------|---------------------------------| 
d2|---------------------0-----------|---------------------------------| 
a2|-----------------2---------------|---------------------------------| 
e2|-5-----------5-\-3-----------3-\-|-2-----------1-------0-----------| 
 
 
 
OR  
 
 
    1   +   2   +   3   +   4   +     1   +   2   +   3   +   4   +     
e2|---------------------------------|---------------------------------| 
b2|---------------------------------|---------------------------------| 
g2|---------------------------------|---------------------------------| 
d2|---------------------------------|---------------------------------| 
a2|-0---------------2---------------|-3-----------5-----5b7-----------| 
e2|-5-----------5-\-3-----------3-\-|-2-----------1-------0-----------| 
 
 
 
INTERLUDE (with tremolo effect) 
 
 
e2|-0-| 
b2|-1-| 
g2|-0-| 
e2|-2-| 
a2|-0-| 
e2|---| 
 
 
 
END 
 
 
    1   +   2   +   3   +   4   +     1   +   2   +   3   +   4   +     1 
e2|--------------------------------|----------8-\-7-------------------|--- 
b2|--------------------------------|------8-----------8---------------|--- 
g2|-----------------------------7--/--9-------------------7-\-5-h-7---|--- 
d2|--------------------------------|----------------------------------|-7- 
a2|-0-----------0---3---3---0------|----------------------------------|--- 
e2|--------------------------------|----------------------------------|---  

		  

Full key step upFull key step up
Half key step upHalf key step up
Half key step downHalf key step down
Full key step downFull key step down
hide glossary

See also:

tabs John Butler Trio - Crazy tabs John Butler Trio - Attitude tabs The Vines - In The Jungle (ver. 1) tabs John Butler Trio - Peaches & Cream tabs Thirsty Merc - Emancipate Myself tabs Russell Morris - On The Wings Of An Eagle
e-chords

Other versions:

tabs Pete Murray - Tonic
auto scroll beats size up size down change color hide chords drawings
tab show chords e-chords YouTube Clip e-chords hide all tabs e-chords go to top tab

share