Periphery

Remain Indoors

Periphery

tabs

by  TERCMORAES

save to print version add songbook text version e-mail correct tuner
chordsukulelecavacokeyboardtabbassdrumsharmonicaflute Guitar Pro
close

there isn't a video lesson for this song

chords

Remain Indoors

	  		
Intro 

D|-----------------------------------------------------------------------------------------------| 
A|---------------------------------------------------------0-------------------------------------| 
F|---3----------3-----------3----------------3---------------------3-------3---------------------| 
C|---1----------1-----------1------------1-------1/4---------------1-------1---------------------| 
G|---2----------2-----------2-------2------------------------------2-------2-----6----4----------| 
A|---0?0------0?0------0--0 -------------------------------------0?0-----0?0-----4----2----------| 

D|----------------------------------------------------------0-------------------------------------| 
A|------------------------------------------------------------------------------------------------| 
F|---3----------3-----------3----------------3------/4---------------3--------3-------------------| 
C|---1----------1-----------1------------1-------1-------------------1--------1-------------------| 
G|---2----------2-----------2-------2--------------------------------2------------6----9----------| 
A|---0?0------0?0------0--0 ---------------------------------------0?0------0?0---4----7----------| 

D|-----------------------------------------------------------------------------------------------| 
A|---------------------------------------------------------0-------------------------------------| 
F|---3----------3-----------3----------------3---------------------3-------3---------------------| 
C|---1----------1-----------1------------1-------1/4---------------1-------1---------------------| 
G|---2----------2-----------2-------2------------------------------2-------2-----6----4----------| 
A|---0?0------0?0------0--0 -------------------------------------0?0-----0?0-----4----2----------| 

D|------------------------------------------------------------------------------------------------| 
A|---------------------------------------------------------0--------------------------------------| 
F|---3----------3-----------3----------------3---------6------------3-------3---------------------| 
C|---1----------1-----------1------------1-------1/4----------------1-------1---------------------| 
G|---2----------2-----------2-------2-------------------------------2-------2-----6----4----------| 
A|---0?0------0?0------0--0---------------------------------------0?0-----0?0-----4----2----------| 


Chorus 

D|------------------------------------------------------------------------------| 
A|------------------------------------------------------------------------------| 
F|-------------------------------------------12-------------------9-------------| 
C|---13----------------9---------------------12---------PC------=-9------PC-----| 
G|---13---------PC-----9-----------PC--------10-------------------7-------------| 
A|---16?------?--------12--------------------------------------?-------------?--| 

D|------------------------------------------------------------------------------| 
A|------------------------------------------------------------------------------| 
F|-------------------------------------------12-------------------11------------| 
C|---11----------------9---------------------12---------PC--------13------PC----| 
G|---11---------PC-----9-----------PC--------10-------------------11------------| 
A|---14?------?--------12--------------------------------------?-----?----------| 


Pre-Chorus 

D|--------------------------------------------------------------------------| 
A|--------------------------------------------------------------------------| 
F|-----------------3-----------3---3-----------------------3------3-----3---| 
C|-----------------1-----------1---1-----------------------1------1-----1---| 
G|-----------------2-----------2---2-----------------------2------2-----2---| 
A|---0-0-0-0-0-0-0?--0-0-0-0-0---0---0-----0-0-0-0-0-4-4-4---4--0---0-0-0-0-| 

D|-------------------------------------| 
A|-------------------------------------| 
F|--------------3-----------3------3---| 
C|--------------1-----------1------1---| 
G|--------------2-----------2------2---| 
A|----0-0-0-0-0---0-0-0-0-0---0-0--0-0-| 

D|--------------------------------------| 
A|--------------------------------------| 
F|--------------------3-------------3---| 
C|--------------------1-------------1---| 
G|--------------------2-----2-------2---| 
A|---0-0-0-0-0-4-4-4--4--0--0-0?0-0-----| 


Chorus 

D|------------------------------------------------------------------------------| 
A|------------------------------------------------------------------------------| 
F|-------------------------------------------12-------------------11------------| 
C|---13----------------9---------------------12---------PC--------13------PC----| 
G|---13---------PC-----9-----------PC--------10-------------------11------------| 
A|---16?------?--------12 -------------------------------------?-----?----------| 

D|------------------------------------------------------------------------------| 
A|------------------------------------------------------------------------------| 
F|-------------------------------------------12-------------------11------------| 
C|---11----------------9---------------------12---------PC--------13------PC----| 
G|---11---------PC-----9-----------PC--------10-------------------11------------| 
A|---14?------?--------12 -------------------------------------?-------------?--| 


(EXTENDED  RIFF) 

D|------------------------------------------------------------------------------------------------| 
A|---------------------------------------------------------------------------------------------9--| 
F|---3---------------------------3---------6----------3----------------------------/11-----11-----| 
C|---1---------------------4---------4/6----------6-------------8------------4----------9---------| 
G|---2-----6----4------/6-----6------------------------------------------/6-----6-----------------| 
A|---0?0---4----2?0-------- ------------------4----------7--9-----7--0-?-----?---------------------| 

D|-----------------------------------------------------------------------------------------------| 
A|----------------------------------------------------------------------------------12----9------| 
F|---3--------------------------3-------7---------6--------8--------------11----/15----15--------| 
C|---1---------------------4-------4/6----8-----9-------11------------/13-----13-------------13--| 
G|---2-----6----9------/6-----6------------------------------------------------------------------| 
A|---0?0---4----7?0--------------------------7--------9--------/11--0-?-----?--------------------| 

AGAIN  INTRO  PART 
THEN 
BRIDGE/TAPPING REGION: 

D|--------T17-P-7-P-9-P-11-------------------------------------------------------------| 
A|-----------------------------T16-P-7-------------------------------------------------|  
      4 

D|--------T14-P-7-P-9-P-11-------------------------------------------------------------| 
A|-----------------------------T12-P-7-------------------------------------------------|  
     4 

D|--------T17-P-7-P-9-P-11-------------------------------------------------------------| 
A|-----------------------------T16-P-7-------------------------------------------------|  
      4 

D|--------T14-P-7-P-9-P-11-------------------------------------------------------------| 
A|-----------------------------T12-P-7-------------------------------------------------|  
     4 

D|--------T17-P-7-P-9-P-11-------------------------------------------------------------| 
A|-----------------------------T16-P-7-------------------------------------------------|  
      4 

D|--------T14-P-7-P-9-P-11-------------------------------------------------------------| 
A|-----------------------------T12-P-7-------------------------------------------------|  
     4 

D|--------T17-P-7-P-9-P-11-------------------------------------------------------------| 
A|-----------------------------T16-P-7-------------------------------------------------|  
      4 

D|--------T14-P-7-P-9-P-11-------------------------------------------------------------| 
A|-----------------------------T12-P-7-------------------------------------------------|  
     4 

D|--------------------------------------------------------------------------------| 
A|--HT-9-HT-11-HT-12--- HT-9-HT-11-HT-12--- HT-9-HT-11-HT-12--- HT-9-HT-11-HT-12--| 
*HT-9-HT-11--- HT-9-HT-11---------------------------------------------------------| 

D|T14-P-7-P-9-P-11--------T14-P-7-P-9-P-11------T14-P-7-P-9-P-11------T14-P-7-P-9-P-11------T14-P-7-P-9-P-11-| 
A|-----------------T12-P-7----------------T12-P-7---------------T12-P-7---------------T12-P-7----------------| 

D---------------------------------------------------------------------------------| 
A|--HT-9-HT-11-HT-12--- HT-9-HT-11-HT-12--- HT-9-HT-11-HT-12--- HT-9-HT-11-HT-12--| 
*HT-9-HT-11--- HT-9-HT-11---------------------------------------------------------| 


D|T14-P-7-P-9-P-11-------T14-P-7-P-9-P-11-------T14-P-7-P-9-P-11-------T14-P-7-P-9-P-11------T14-P-7-P-9-P-11| 
A|----------------T12-P-7----------------T12-P-7----------------T12-P-7----------------T12-P-7---------------| 


Chorus 

THEN 
EXTENDED RIFF 
D|------------------------------------------------------------------------------------------------| 
A|---------------------------------------------------------------------------------------------9--| 
F|---3---------------------------3---------6----------3----------------------------/11-----11-----| 
C|---1---------------------4---------4/6----------6-------------8------------4----------9---------| 
G|---2-----6----4------/6-----6------------------------------------------/6-----6-----------------| 
A|---0?0---4----2?0-------- ------------------4----------7--9-----7--0-?-----?--------------------| 

D|-----------------------------------------------------------------------------------------------| 
A|----------------------------------------------------------------------------------12----9------| 
F|---3--------------------------3-------7---------6--------8--------------11----/15----15--------| 
C|---1---------------------4-------4/6----8-----9-------11------------/13-----13-------------13--| 
G|---2-----6----9------/6-----6------------------------------------------------------------------| 
A|---0?0---4----7?0-------- -----------------7--------9--------/11--0-?-----?--------------------| 

D|------------------------------------------------------------------------------------------------| 
A|---------------------------------------------------------------------------------------------9--| 
F|---3---------------------------3---------6----------3----------------------------/11-----11-----| 
C|---1---------------------4---------4/6----------6-------------8------------4----------9---------| 
G|---2-----6----4------/6-----6------------------------------------------/6-----6-----------------| 
A|---0?0---4----2?0-------- ------------------4----------7--9-----7--0-?-----?--------------------| 

D|-----------------------------------------------------------------------------------------------| 
A|----------------------------------------------------------------------------------12----9------| 
F|---3--------------------------3-------7---------6--------8--------------11----/15----15--------| 
C|---1---------------------4-------4/6----8-----9-------11------------/13-----13-------------13--| 
G|---2-----6----9------/6-----6------------------------------------------------------------------| 
A|---0?0---4----7?0-------- -----------------7--------9--------/11--0-?-----?--------------------| 

Outro 

D|------------------------------------------------------------------| 
A|------------------------------------------------------------------| 
F|---3------------3-------------3----------3--3----------3----------| 
C|---1------------1-------------1----------1--1----------1----------| 
G|---2------------2-------------2----------2--2----------2----------| 
A|---0?--0--------0?--0---------0---0-----0--0------0---------------|             4--| 


************************************ 

| /  Slide up 
| P  Pulloffs   
| *  Continue    
| HT hammerton / tap 
| PC CHORD PROGRESSION CONT.; 
| T  TAPPING;   

************************************ 
		  

auto scroll beats size up size down change color hide chords drawings
tab show chords e-chords YouTube Clip e-chords hide all tabs e-chords go to top tab

share