Periphery

Racecar (Solo)

Periphery

tabs

by  ABELAMIN

save to print version add songbook text version e-mail correct tuner
chordsukulelecavacokeyboardtabbassdrumsharmonicaflute Guitar Pro
close

there isn't a video lesson for this song

chords

Racecar (Solo)

(Periphery)

	  		
Tuning:Standard 

e|----------------------------------------------------------------| 
B|--------7--------------------------------------------------5/7~-| 
G|-6h8p6----8-6---6/8---------4-6b8br6---------------4/6-8--------| 
D|--------------9-----6\--4h6----------6-4\3-----4/6-------6------| 
A|-------------------------------------------4\-------------------| 
E|----------------------------------------------------------------| 

e|-------7-6---------6-9-7-----14----------------------------------------| 
B|-----x-----7-----7--------11----11-------------------------------------| 
G|---x---------6/8-------------------13-11-11h13p11----------------------| 
D|-x------------------------------------------------11-9-11--11p9p8------| 
A|------------------------------------------------------------------9/11-| 
E|-----------------------------------------------------------------------| 

e|----------------------------11-7h9---------------------| 
B|-----------------------------------11-7----------7/11~-| 
G|---------------------13-----------------7-6------------| 
D|-9--11/13--11-13/15------13-----------------7----------| 
A|----------------------------------------------11-------| 
E|-------------------------------------------------------| 
 
		  

auto scroll beats size up size down change color hide chords drawings
tab show chords e-chords YouTube Clip e-chords hide all tabs e-chords go to top tab

share