Periphery

Icarus Lives (solo)

Periphery

tabs

by  MARCNAGEL

save to print version add songbook text version e-mail correct tuner
chordsukulelecavacokeyboardtabbassdrumsharmonicaflute Guitar Pro
close

there isn't a video lesson for this song

chords

Icarus Lives (solo)

	  		
Guitar Solo: 

eb|-----------------------------------------------------------------------------| 
Bb|------------10b--------------------------------------------------------------| 
Gb|--12b13r12------10~--12/17--14b-----------14\10----------------10--12b13r12--| 
Db|--------------------------------15-----15-------12----------12---------------| 
Ab|------------------------------------17-------------13p10-13------------------| 
Eb|-----------------------------------------------------------------------------| 

eb|-----------------------------------------------------------------| 
Bb|--------------------------------------------------10-6--------6--| 
Gb|-10--12--------------------10-10-10-10-7--------7------8-7-8-----| 
Db|-----------------------------------------8-7-8-------------------| 
Ab|---------13--8/10------------------------------------------------| 
Eb|------------------13--11-----------------------------------------| 

eb|-10/13---------13/15---------10--15------------------------18\--| 
Bb|-------10--11--------10--11-------------15---------18-----------| 
Gb|------------------------------------10-----------------15-------| 
Db|--------------------------------------------10/15---------------| 
Ab|----------------------------------------------------------------| 
Eb|----------------------------------------------------------------| 

eb|----------------------------------------------------------------| 
Bb|--11--11--------------------------------------------------------| 
Gb|--10--8--7h8p7---------------------10h12------------------------| 
Db|----------------8---------8h10/12-------------------------------| 
Ab|---------------------8h10----------------12---h13p12p10---------| 
Eb|---------------------------------------------------------13-11--| 

eb|---------------------------------13/15---| 
Bb|---------------------11-------11---------| 
Gb|--------------10/12-----10h11------------| 
Db|-----------8-----------------------------| 
Ab|-----8h10--------------------------------| 
Eb|--11-------------------------------------| 

eb|--t16p11------------------------------------| 
Bb|----------h14-------------t15p11------------| 
Gb|---------------t16p11h12----------h12-------| 
Db|---------------------------------------t11--| 
Ab|--------------------------------------------| 
Eb|--------------------------------------------|  
		  

auto scroll beats size up size down change color hide chords drawings
tab show chords e-chords YouTube Clip e-chords hide all tabs e-chords go to top tab

share