Pearl Jam

home > Pearl Jam

World wide suicide Tab

Pearl Jam

Difficulty: nolevelnolevel

by europeu

tuner correct add songbook print version text version save to e-mail
chordsukulelecavacokeyboardtabbassdrumsharmonicsflute Guitar Pro
chords

World wide suicide

Year: 2006 - Album: Pearl Jam

  		Instrument: Guitar 
Tuning: EBGDAe (Standard) 
 
 
Intro/Pre-Chorus 
 
     A5    F#5 G5 A5    F#5 G5 A5    F#5 G5 C5      D5 
e||---------------------------------------------------------| 
B||---------------------------------------------------------| 
G||-----------------------------------------5-5-5-5-7-7-7-7-| 
D||--7-7-x--4-5---7-7-x--4-5---7-7-x--4-5---5-5-5-5-7-7-7-7-| 
A||--7-7-x--4-5---7-7-x--4-5---7-7-x--4-5---3-3-3-3-5-5-5-5-| 
E||--5-5-x--2-3---5-5-x--2-3---5-5-x--2-3-------------------| 
 
 
Verse (Let ring the chords) 
 A                                   
I felt the earth on a Monday 
 A 
It moved beneath my feet 
 G 
In the form of the morning paper 
 G  
Laid out for me to see 
  
---------- 
|A=577765| 
|G=355433| 
---------- 
 
Chorus 
    
    A5    C5 G5  A5   C5 G5  A5  C5 G5   D5 
e||------------------------------------------------------| 
B||------------------------------------------------------| 
G||--------5-----------5-----------5-----7-7-7-7-7-7-7-7-| 
D||--7-7-x-5-5---7-7-x-5-5---7-7-x-5-5---7-7-7-7-7-7-7-7-| 
A||--7-7-x-3-5---7-7-x-3-5---7-7-x-3-5---5-5-5-5-5-5-5-5-| 
E||--5-5-x---3---5-5-x---3---5-5-x---3-------------------| 
 
 
Solo 
 
e||----------------------------------------------------| 
B||----------------------------------------------------| 
G||--6h8--8/9-6-4/6/8---6h8-8/9-6-4-6-6-4-4---6--4-4---| 
D||----------------------------------------------------| 
A||----------------------------------------------------| 
E||----------------------------------------------------| 
 
 
Bridge 
 
e||-----------------------------------| 
B||-----------------------------------| 
G||-----------------------------------| 
D||--9-9-9-9-9-9-9-9-7-7-7-7-7-7-7-7--| 
A||--9-9-9-9-9-9-9-9-7-7-7-7-7-7-7-7--| 
E||--7-7-7-7-7-7-7-7-5-5-5-5-5-5-5-5--| 
 
 
End 
 
 
e||-----| 
B||-----| 
G||-----| 
D||--7--| 
A||--7--| 
E||--5--|            tabbed by alex 182 

	  

Full key step upFull key step up
Half key step upHalf key step up
Half key step downHalf key step down
Full key step downFull key step down
Search Paypal
auto scroll beats size up size down change color hide chords drawings
tab show chords e-chords YouTube Clip e-chords hide all tabs e-chords go to top tab