Pearl Jam

home > Pearl Jam

Whale Song Tab

Pearl Jam

Difficulty: nolevelnolevel

tuner correct add songbook print version text version save to e-mail
chordsukulelecavacokeyboardtabbassdrumsharmonicsflute Guitar Pro
chords

Whale Song

Year: 2003 - Album: Lost Dogs: Rarities and B Sides

  		 
-|-------------------------------------------------|-------------------------- 
-|-------------------------------------------------|-------------------------- 
-|-11-11-11-11-11-11-11-11-10-10-10-10-10-10-10-10-|-------------------------- 
-|--9--9--9--9--9--9--9--9--9--9--9--9--9--9--9--9-|-------------------------- 
-|-------------------------------------------------|-------------------------- 
-|-------------------------------------------------|-------------------------- 
 Intro,  G1                                                                      
 
-|-------------------------------------------------|-------------------------- 
-|-------------------------------------------------|-------------------------- 
-|-11-11-11-11-11-11-11-11-10-10-10-10-10-10-10-10-|-------------------------- 
-|--9--9--9--9--9--9--9--9--0--0--0--0--0--0--0--0-|-------------------------- 
-|-------------------------------------------------|-------------------------- 
-|-------------------------------------------------|-------------------------- 
              The sun was in clouds, the sun looked out                         
 
-|-------------------------------------------------|-------------------------- 
-|-------------------------------------------------|-------------------------- 
-|-11-11-11-11-11-11-11-11-10-10-10-10-10-10-10-10-|-------------------------- 
-|--0--0--0--0--0--0--0--0--0--0--0--0--0--0--0--0-|-------------------------- 
-|-------------------------------------------------|-------------------------- 
-|-------------------------------------------------|-------------------------- 
           Exposed a trail     of mist and spouts                              
 
-|-------------------------------------------------|-------------------------- 
-|-------------------------------------------------|-------------------------- 
-|-11-11-11-11-11-11-11-11-10-10-10-10-10-10-10-10-|-------------------------- 
-|--0--0--0--0--0--0--0--0--0--0--0--0--0--0--0--0-|-------------------------- 
-|-------------------------------------------------|-------------------------- 
-|-------------------------------------------------|-------------------------- 
               Ships follow      the anciently                                 
 
-|-------------------------------------------------|-------------------------- 
-|-------------------------------------------------|-------------------------- 
-|-11-11-11-11-11-11-11-11-10-10-10-10-10-10-10-10-|-------------------------- 
-|--0--0--0--0--0--0--0--0--0--0--0--0--0--0--0--0-|-------------------------- 
-|-------------------------------------------------|-------------------------- 
-|-------------------------------------------------|-------------------------- 
                Deceiving friends   under the sea                              
 
-|---------------------------------|------------------------------------------ 
-|---------------------------------|------------------------------------------ 
-|---------------------------------|------------------------------------------ 
-|-4-4-4-4-4-4-4-------------------|------------------------------------------ 
-|-2-2-2-2-2-2-2---2-2-2-2-2-2-2---|------------------------------------------ 
-|-----------------3-3-3-3-3-3-3---|------------------------------------------ 
  G1+G2(can't  understand lyrics)  2x                                            
 
-|-------------------------------------------------|-------------------------- 
-|-------------------------------------------------|-------------------------- 
-|-11-11-11-11-11-11-11-11-10-10-10-10-10-10-10-10-|-------------------------- 
-|-------------------------------------------------|-------------------------- 
-|-------------------------------------------------|-------------------------- 
-|-------------------------------------------------|-------------------------- 
  G1  Wow      imagine that    they won't fight back                             
 
-|-------------------------------------------------|-------------------------- 
-|--3--3--3--3--3--3--3--3-------------------------|-------------------------- 
-|--2--2--2--2--2--2--2--2-------------------------|-------------------------- 
-|--0--0--0--0--0--0--0--0--3--3--3--3--3--3--3--3-|-------------------------- 
-|--------------------------3--3--3--3--3--3--3--3-|-------------------------- 
-|--------------------------1--1--1--1--1--1--1--1-|-------------------------- 
  G2                                                                             
 
-|-------------------------------------------------|-------------------------- 
-|-------------------------------------------------|-------------------------- 
-|-11-11-11-11-11-11-11-11-10-10-10-10-10-10-10-10-|-------------------------- 
-|-------------------------------------------------|-------------------------- 
-|-------------------------------------------------|-------------------------- 
-|-------------------------------------------------|-------------------------- 
  G1            I've   got         a theory on that                              
 
-|-------------------------------------------------|-------------------------- 
-|--3--3--3--3--3--3--3--3-------------------------|-------------------------- 
-|--2--2--2--2--2--2--2--2-------------------------|-------------------------- 
-|--0--0--0--0--0--0--0--0--3--3--3--3--3--3--3--3-|-------------------------- 
-|--------------------------3--3--3--3--3--3--3--3-|-------------------------- 
-|--------------------------1--1--1--1--1--1--1--1-|-------------------------- 
  G2                                                                             
 
-|-------------------------------------------------|-------------------------- 
-|-------------------------------------------------|-------------------------- 
-|-11-11-11-11-11-11-11-11-10-10-10-10-10-10-10-10-|-------------------------- 
-|-------------------------------------------------|-------------------------- 
-|-------------------------------------------------|-------------------------- 
-|-------------------------------------------------|-------------------------- 
  G1         A whale's heart  is as big as a car                                 
 
-|-------------------------------------------------|-------------------------- 
-|--3--3--3--3--3--3--3--3-------------------------|-------------------------- 
-|--2--2--2--2--2--2--2--2-------------------------|-------------------------- 
-|--0--0--0--0--0--0--0--0--3--3--3--3--3--3--3--3-|-------------------------- 
-|--------------------------3--3--3--3--3--3--3--3-|-------------------------- 
-|--------------------------1--1--1--1--1--1--1--1-|-------------------------- 
  G2                                                                             
 
-|-----------------------------------------------------------|---------------- 
-|-----------------------------------------------------------|---------------- 
-|-11-11-11-11-11-11-11-11-10--------------------------------|---------------- 
-|-----------------------------------------------------------|---------------- 
-|-----------------------------------------------------------|---------------- 
-|-----------------------------------------------------------|---------------- 
  G1        A whaler's thought   must be smudged by the dark                  
 
-|-----------------------------------------------------------|---------------- 
-|--3--3--3--3--3--3--3--3-----------------------------------|---------------- 
-|--2--2--2--2--2--2--2--2-----------------------------------|---------------- 
-|--0--0--0--0--0--0--0--0--3--------------------------------|---------------- 
-|--------------------------3--------------------------------|---------------- 
-|--------------------------1--------------------------------|---------------- 
  G2                                                                             
 
-|-11h12-11-11-11-11-11-11-11-------------------------|----------------------- 
-|----------------------------12-12-12-12-12-12-12-12-|----------------------- 
-|----------------------------------------------------|----------------------- 
-|----------------------------------------------------|----------------------- 
-|----------------------------------------------------|----------------------- 
-|----------------------------------------------------|----------------------- 
  G1       They won't fight back    I'm sure they know how                       
 
-|----------------------------------------------------|----------------------- 
-|----------------------------------------------------|----------------------- 
-|----------------------------------------------------|----------------------- 
-|-----4--4--4--4--4--4--4--4-------------------------|----------------------- 
-|-----2--2--2--2--2--2--2--2--2--2--2--2--2--2--2--2-|----------------------- 
-|-----------------------------3--3--3--3--3--3--3--3-|----------------------- 
  G2                                                                             
 
-|-11-11-11-11-11-11-11-11-------------------------|-------------------------- 
-|-------------------------12-12-12-12-12-12-12-12-|-------------------------- 
-|-------------------------------------------------|-------------------------- 
-|-------------------------------------------------|-------------------------- 
-|-------------------------------------------------|-------------------------- 
-|-------------------------------------------------|-------------------------- 
  G1         Means they love,    are too proud                                
 
-|-------------------------------------------------|-------------------------- 
-|-------------------------------------------------|-------------------------- 
-|-------------------------------------------------|-------------------------- 
-|--4--4--4--4--4--4--4--4-------------------------|-------------------------- 
-|--2--2--2--2--2--2--2--2--2--2--2--2--2--2--2--2-|-------------------------- 
-|--------------------------3--3--3--3--3--3--3--3-|-------------------------- 
  G2                                                                             
 
-|-11-11-11-11-11-11-11-11-------------------------|-------------------------- 
-|-------------------------12-12-12-12-12-12-12-12-|-------------------------- 
-|-------------------------------------------------|-------------------------- 
-|-------------------------------------------------|-------------------------- 
-|-------------------------------------------------|-------------------------- 
-|-------------------------------------------------|-------------------------- 
  G1    They won't fight back  I'm sure they know how                            
 
-|-------------------------------------------------|-------------------------- 
-|-------------------------------------------------|-------------------------- 
-|-------------------------------------------------|-------------------------- 
-|--4--4--4--4--4--4--4--4-------------------------|-------------------------- 
-|--2--2--2--2--2--2--2--2--2--2--2--2--2--2--2--2-|-------------------------- 
-|--------------------------3--3--3--3--3--3--3--3-|-------------------------- 
  G2                                                                             
 
-|-11-11-11-11-11-11-11-11-------------------------|-------------------------- 
-|-------------------------12-12-12-12-12-12-12-12-|-------------------------- 
-|-------------------------------------------------|-------------------------- 
-|-------------------------------------------------|-------------------------- 
-|-------------------------------------------------|-------------------------- 
-|-------------------------------------------------|-------------------------- 
  G1        Means they love,     are too proud                               
 
-|-------------------------------------------------|-------------------------- 
-|-------------------------------------------------|-------------------------- 
-|-------------------------------------------------|-------------------------- 
-|--4--4--4--4--4--4--4--4-------------------------|-------------------------- 
-|--2--2--2--2--2--2--2--2--2--2--2--2--2--2--2--2-|-------------------------- 
-|--------------------------3--3--3--3--3--3--3--3-|-------------------------- 
  G2                                                                             
 
-|---------------------------------------------|------------------------------ 
-|---------------------------------------------|------------------------------ 
-|-8--8--8--8--8--8--8---4--4--4--4--4--4--4---|------------------------------ 
-|-8--8--8--8--8--8--8---4--4--4--4--4--4--4---|------------------------------ 
-|-6--6--6--6--6--6--6---2--2--2--2--2--2--2---|------------------------------ 
-|-6--6--6--6--6--6--6---2--2--2--2--2--2--2---|------------------------------ 
  G1+G2          They  swim      it's really free                                
 
-|---------------------------------------------|------------------------------ 
-|---------------------------------------------|------------------------------ 
-|-8--8--8--8--8--8--8---4--4--4--4--4--4--4---|------------------------------ 
-|-8--8--8--8--8--8--8---4--4--4--4--4--4--4---|------------------------------ 
-|-6--6--6--6--6--6--6---2--2--2--2--2--2--2---|------------------------------ 
-|-6--6--6--6--6--6--6---2--2--2--2--2--2--2---|------------------------------ 
               It's   a   beautiful thing to see                               
 
-|---------------------------------------------|------------------------------ 
-|---------------------------------------------|------------------------------ 
-|-8--8--8--8--8--8--8---4--4--4--4--4--4--4---|------------------------------ 
-|-8--8--8--8--8--8--8---4--4--4--4--4--4--4---|------------------------------ 
-|-6--6--6--6--6--6--6---2--2--2--2--2--2--2---|------------------------------ 
-|-6--6--6--6--6--6--6---2--2--2--2--2--2--2---|------------------------------ 
               They  sing                                                      
 
-|---------------------------------------------|------------------------------ 
-|---------------------------------------------|------------------------------ 
-|---------------------------------------------|------------------------------ 
-|-4--4--4--4--4--4--4-------------------------|------------------------------ 
-|-2--2--2--2--2--2--2---2--2--2--2--2--2--2---|------------------------------ 
-|-----------------------3--3--3--3--3--3--3---|------------------------------ 
  G1                                                                             
 
-|-12/-------------------15-------------------|------------------------------ 
-|---------------------------------------------|------------------------------ 
-|---------------------------------------------|------------------------------ 
-|---------------------------------------------|------------------------------ 
-|---------------------------------------------|------------------------------ 
-|---------------------------------------------|------------------------------ 
  G3 ,   w/slide, various delay/echo effects                                       
 
-|---------------------------------------------|------------------------------ 
-|---------------------------------------------|------------------------------ 
-|---------------------------------------------|------------------------------ 
-|-4--4--4--4--4--4--4-------------------------|------------------------------ 
-|-2--2--2--2--2--2--2---2--2--2--2--2--2--2---|------------------------------ 
-|-----------------------3--3--3--3--3--3--3---|------------------------------ 
  G1                                                                             
 
-|-10/-----------1917-------------------------|------------------------------ 
-|-10/--------------------17/24*---------------|------------------------------ 
-|---------------------------------------------|------------------------------ 
-|---------------------------------------------|------------------------------ 
-|---------------------------------------------|------------------------------ 
-|---------------------------------------------|------------------------------ 
  G3                             *approximate                                    
 
-|-------------------------------------------------|-------------------------- 
-|-------------------------------------------------|-------------------------- 
-|-11-11-11-11-11-11-11-11-10-10-10-10-10-10-10-10-|-------------------------- 
-|-------------------------------------------------|-------------------------- 
-|-------------------------------------------------|-------------------------- 
-|-------------------------------------------------|-------------------------- 
  G1           Hunters of land    hunters of sea                                 
 
-|-------------------------------------------------|-------------------------- 
-|--3--3--3--3--3--3--3--3-------------------------|-------------------------- 
-|--2--2--2--2--2--2--2--2-------------------------|-------------------------- 
-|--0--0--0--0--0--0--0--0--3--3--3--3--3--3--3--3-|-------------------------- 
-|--------------------------3--3--3--3--3--3--3--3-|-------------------------- 
-|--------------------------1--1--1--1--1--1--1--1-|-------------------------- 
  G2                                                                             
 
-|-2423-2017-------------------------------------|-------------------------- 
-|-------------------------------------------------|-------------------------- 
-|-------------------------------------------------|-------------------------- 
-|-------------------------------------------------|-------------------------- 
-|-------------------------------------------------|-------------------------- 
-|-------------------------------------------------|-------------------------- 
  G3                                                                             
 
-|-------------------------------------------------|-------------------------- 
-|-------------------------------------------------|-------------------------- 
-|-11-11-11-11-11-11-11-11-10-10-10-10-10-10-10-10-|-------------------------- 
-|-------------------------------------------------|-------------------------- 
-|-------------------------------------------------|-------------------------- 
-|-------------------------------------------------|-------------------------- 
  G1            Exploit  any-thing for money                                     
 
-|-------------------------------------------------|-------------------------- 
-|--3--3--3--3--3--3--3--3-------------------------|-------------------------- 
-|--2--2--2--2--2--2--2--2-------------------------|-------------------------- 
-|--0--0--0--0--0--0--0--0--3--3--3--3--3--3--3--3-|-------------------------- 
-|--------------------------3--3--3--3--3--3--3--3-|-------------------------- 
-|--------------------------1--1--1--1--1--1--1--1-|-------------------------- 
  G2                                                                             
 
-|-------------------------------------------------|-------------------------- 
-|-------------------------------------------------|-------------------------- 
-|-11-11-11-11-11-11-11-11-10-10-10-10-10-10-10-10-|-------------------------- 
-|-------------------------------------------------|-------------------------- 
-|-------------------------------------------------|-------------------------- 
-|-------------------------------------------------|-------------------------- 
  G1               I  refer             to anybody                               
 
-|-------------------------------------------------|-------------------------- 
-|--3--3--3--3--3--3--3--3-------------------------|-------------------------- 
-|--2--2--2--2--2--2--2--2-------------------------|-------------------------- 
-|--0--0--0--0--0--0--0--0--3--3--3--3--3--3--3--3-|-------------------------- 
-|--------------------------3--3--3--3--3--3--3--3-|-------------------------- 
-|--------------------------1--1--1--1--1--1--1--1-|-------------------------- 
  G2                                                                             
 
-|-------------------------------------------------|-------------------------- 
-|-------------------------------------------------|-------------------------- 
-|-11-11-11-11-11-11-11-11-10-10-10-10-10-10-10-10-|-------------------------- 
-|-------------------------------------------------|-------------------------- 
-|-------------------------------------------------|-------------------------- 
-|-------------------------------------------------|-------------------------- 
  G1           That takes advantage  of what that is free                        
 
-|-------------------------------------------------|-------------------------- 
-|--3--3--3--3--3--3--3--3-------------------------|-------------------------- 
-|--2--2--2--2--2--2--2--2-------------------------|-------------------------- 
-|--0--0--0--0--0--0--0--0--3--3--3--3--3--3--3--3-|-------------------------- 
-|--------------------------3--3--3--3--3--3--3--3-|-------------------------- 
-|--------------------------1--1--1--1--1--1--1--1-|-------------------------- 
  G2                                                                             
 
-|-11-11-11-11-11-11-11-11-------------------------|-------------------------- 
-|-------------------------12-12-12-12-12-12-12-12-|-------------------------- 
-|-------------------------------------------------|-------------------------- 
-|-------------------------------------------------|-------------------------- 
-|-------------------------------------------------|-------------------------- 
-|-------------------------------------------------|-------------------------- 
  G1       They won't fight back yeah                                            
 
-|-------------------------------------------------|-------------------------- 
-|-------------------------------------------------|-------------------------- 
-|-------------------------------------------------|-------------------------- 
-|--4--4--4--4--4--4--4--4-------------------------|-------------------------- 
-|--2--2--2--2--2--2--2--2--2--2--2--2--2--2--2--2-|-------------------------- 
-|--------------------------3--3--3--3--3--3--3--3-|-------------------------- 
  G2                                                                             
 
-|-------------------------------------------------|-------------------------- 
-|-------------------------------------------------|-------------------------- 
-|-11-11-11-11-11-11-11-11-10-10-10-10-10-10-10-10-|-------------------------- 
-|-------------------------------------------------|-------------------------- 
-|-------------------------------------------------|-------------------------- 
-|-------------------------------------------------|-------------------------- 
  G1     It's only a thought      that makes it seem right                       
 
-|--------------2--2--2--2-------------------------|-------------------------- 
-|--------------3--3--3--3-------------------------|-------------------------- 
-|--------------2--2--2--2-------------------------|-------------------------- 
-|--------------0--0--0--0-------------------------|-------------------------- 
-|-------------------------------------------------|-------------------------- 
-|-------------------------------------------------|-------------------------- 
  G2                                                                             
 
-|-------------------------------------------------|-------------------------- 
-|-------------------------------------------------|-------------------------- 
-|-11-11-11-11-11-11-11-11-10-10-10-10-10-10-10-10-|-------------------------- 
-|-------------------------------------------------|-------------------------- 
-|-------------------------------------------------|-------------------------- 
-|-------------------------------------------------|-------------------------- 
  G1       What you don't see   is because of your sight                         
 
-|--------------2--2--2--2--------------1--1--1--1-|-------------------------- 
-|--------------3--3--3--3--------------1--1--1--1-|-------------------------- 
-|--------------2--2--2--2--------------2--2--2--2-|-------------------------- 
-|--------------0--0--0--0--------------3--3--3--3-|-------------------------- 
-|-------------------------------------------------|-------------------------- 
-|-------------------------------------------------|-------------------------- 
  G2                                                                             
 
-|-11h12-11-11-11-11-11-11-11-------------------------|----------------------- 
-|----------------------------12-12-12-12-12-12-12-12-|----------------------- 
-|----------------------------------------------------|----------------------- 
-|----------------------------------------------------|----------------------- 
-|----------------------------------------------------|----------------------- 
-|----------------------------------------------------|----------------------- 
  G1         Take what you want      kill what you can                           
 
-|----------------------------------------------------|----------------------- 
-|----------------------------------------------------|----------------------- 
-|----------------------------------------------------|----------------------- 
-|-----4--4--4--4--4--4--4--4-------------------------|----------------------- 
-|-----2--2--2--2--2--2--2--2--2--2--2--2--2--2--2--2-|----------------------- 
-|-----------------------------3--3--3--3--3--3--3--3-|----------------------- 
  G2                                                                             
 
-|-11-11-11-11-11-11-11-11-------------------------|-------------------------- 
-|-------------------------12-12-12-12-12-12-12-12-|-------------------------- 
-|-------------------------------------------------|-------------------------- 
-|-------------------------------------------------|-------------------------- 
-|-------------------------------------------------|-------------------------- 
-|-------------------------------------------------|-------------------------- 
  G1        That's just  one way from the mind of man                            
 
-|-------------------------------------------------|-------------------------- 
-|-------------------------------------------------|-------------------------- 
-|-------------------------------------------------|-------------------------- 
-|--4--4--4--4--4--4--4--4-------------------------|-------------------------- 
-|--2--2--2--2--2--2--2--2--2--2--2--2--2--2--2--2-|-------------------------- 
-|--------------------------3--3--3--3--3--3--3--3-|-------------------------- 
  G2                                                                             
 
-|-11h12-11-11-11-11-11-11-11-------------------------|----------------------- 
-|----------------------------12-12-12-12-12-12-12-12-|----------------------- 
-|----------------------------------------------------|----------------------- 
-|----------------------------------------------------|----------------------- 
-|----------------------------------------------------|----------------------- 
-|----------------------------------------------------|----------------------- 
  G1          Take their  lives     sell their parts                             
 
-|----------------------------------------------------|----------------------- 
-|----------------------------------------------------|----------------------- 
-|----------------------------------------------------|----------------------- 
-|-----4--4--4--4--4--4--4--4-------------------------|----------------------- 
-|-----2--2--2--2--2--2--2--2--2--2--2--2--2--2--2--2-|----------------------- 
-|-----------------------------3--3--3--3--3--3--3--3-|----------------------- 
  G2                                                                             
 
-|-11h12-11-11-11-11-11-11-11-------------------------|----------------------- 
-|----------------------------12-12-12-12-12-12-12-12-|----------------------- 
-|----------------------------------------------------|----------------------- 
-|----------------------------------------------------|----------------------- 
-|----------------------------------------------------|----------------------- 
-|----------------------------------------------------|----------------------- 
  G1           But there's no ta-king of their hearts                          
 
-|----------------------------------------------------|----------------------- 
-|----------------------------------------------------|----------------------- 
-|----------------------------------------------------|----------------------- 
-|-----4--4--4--4--4--4--4--4-------------------------|----------------------- 
-|-----2--2--2--2--2--2--2--2--2--2--2--2--2--2--2--2-|----------------------- 
-|-----------------------------3--3--3--3--3--3--3--3-|----------------------- 
  G2                                                                             
 
-|-------------------------------------------------|-------------------------- 
-|-------------------------------------------------|-------------------------- 
-|-11-11-11-11-11-11-11-11-10-10-10-10-10-10-10-10-|-------------------------- 
-|--0--0--0--0--0--0--0--0--0--0--0--0--0--0--0--0-|-------------------------- 
-|-------------------------------------------------|-------------------------- 
-|-------------------------------------------------|-------------------------- 
  G1              If I   was  lost at sea                                        
 
-|-------------------------------------------------|-------------------------- 
-|-------------------------------------------------|-------------------------- 
-|-11-11-11-11-11-11-11-11-10-10-10-10-10-10-10-10-|-------------------------- 
-|--0--0--0--0--0--0--0--0--0--0--0--0--0--0--0--0-|-------------------------- 
-|-------------------------------------------------|-------------------------- 
-|-------------------------------------------------|-------------------------- 
  G1     That harpoon boat in front of me                                        
 
-|-------------------------------------------------|-------------------------- 
-|-----------------0--0--0-----0--0--0--0--0--0--0-|-------------------------- 
-|-11-11-11-11-11-11-11-11-10-10-10-10-10-10-10-10-|-------------------------- 
-|--0--0--0--0--0--0--0--0--0--0--0--0-------------|-------------------------- 
-|-------------------------------------------------|-------------------------- 
-|-------------------------------------------------|-------------------------- 
  G1       It's the whale I'd like  to  be                                       
 
-|-----------------------------------------------------------------|---------- 
-|-----------------------------------------------------------------|---------- 
-|-----------------------------------------------------------------|---------- 
-|-4-4-4-4-4-4-4-4-----------------4-4-4-4-4-4-4-4-----------------|---------- 
-|-2-2-2-2-2-2-2-2-2-2-2-2-2-2-2-2-2-2-2-2-2-2-2-2-2-2-2-2-2-2-2-2-|---------- 
-|-----------------3-3-3-3-3-3-3-3-----------------3-3-3-3-3-3-3-3-|---------- 
  G2                                                                             
 
-|-----------------------------------------------------------------|---------- 
-|-----------------------------------------------------------------|---------- 
-|-8-------8-9-8-------------------8---8---8-9-8-------------------|---------- 
-|---------------11-9------9--11-----------------11-9------9--11---|---------- 
-|-----------------------------------------------------------------|---------- 
-|-----------------------------------------------------------------|---------- 
  G3  (w/phaser)                                                                 
 
-|-----------------------------------------------------------------|---------- 
-|-----------------------------------------------------------------|---------- 
-|-----------------------------------------------------------------|---------- 
-|-4-4-4-4-4-4-4-4-----------------4-4-4-4-4-4-4-4-----------------|---------- 
-|-2-2-2-2-2-2-2-2-2-2-2-2-2-2-2-2-2-2-2-2-2-2-2-2-2-2-2-2-2-2-2-2-|---------- 
-|-----------------3-3-3-3-3-3-3-3-----------------3-3-3-3-3-3-3-3-|---------- 
  G2                                                                             
 
-|-----------------------------------------------------------------|---------- 
-|-----------------------------------------------------------------|---------- 
-|-8-------8-9-8---------------------------8-9-8-------11b13r11--9-|---------- 
-|---------------11-9---11-9---11--9-------------11-9--------------|---------- 
-|-----------------------------------------------------------------|---------- 
-|-----------------------------------------------------------------|---------- 
  G3                                                                             
 
-|-----------------------------------------------------------------|---------- 
-|-----------------------------------------------------------------|---------- 
-|-8---------------------------------------------------------------|---------- 
-|------9------------------------------------------7-7-------------|---------- 
-|--------------------9----------------9-9-9-9-9-------------------|---------- 
-|-------------------------------------7-7-7-7-7-------------------|---------- 
  G1-enters                                                                      
 
-|-----------------------------------------------------------------|---------- 
-|-----------------------------------------------------------------|---------- 
-|-----------------------------------------------------------------|---------- 
-|-4-4-4-4-4-4-4-4-----------------4-4-4-4-4-4-4-4-----------------|---------- 
-|-2-2-2-2-2-2-2-2-2-2-2-2-2-2-2-2-2-2-2-2-2-2-2-2-2-2-2-2-2-2-2-2-|---------- 
-|-----------------3-3-3-3-3-3-3-3-----------------3-3-3-3-3-3-3-3-|---------- 
  G2                                                                             
 
-|--------------------------------------------------------11-------|---------- 
-|----------------12---------------12b14r12------------------------|---------- 
-|-8---------------------------------------------------------------|---------- 
-|-----------------------------------------------------------------|---------- 
-|-----------------------------------------------------------------|---------- 
-|-----------------------------------------------------------------|---------- 
  G3                                                                             
 
-|-----------------------------------------------------------------|---------- 
-|-----------------------------------------------------------------|---------- 
-|-8----------8----------------------------------------------------|---------- 
-|-----9-------------------------------------------7h9-------------|---------- 
-|--------------------9----------------9-9-9-9-9-------------------|---------- 
-|-------------------------------------7-7-7-7-7-------------------|---------- 
  G1                                                They won't fight back        
 
-|-----------------------------------------------------------------|---------- 
-|-----------------------------------------------------------------|---------- 
-|-----------------------------------------------------------------|---------- 
-|-4-4-4-4-4-4-4-4-----------------4-4-4-4-4-4-4-4-----------------|---------- 
-|-2-2-2-2-2-2-2-2-2-2-2-2-2-2-2-2-2-2-2-2-2-2-2-2-2-2-2-2-2-2-2-2-|---------- 
-|-----------------3-3-3-3-3-3-3-3-----------------3-3-3-3-3-3-3-3-|---------- 
  G2                                                                             
 
-|-11---------11-12--------------14-------------17--------------19-|---------- 
-|-----------------------------------------------------------------|---------- 
-|-----------------------------------------------------------------|---------- 
-|-----------------------------------------------------------------|---------- 
-|-----------------------------------------------------------------|---------- 
-|-----------------------------------------------------------------|---------- 
  G3                                                                             
 
-|-----------------------------------------------------------------|---------- 
-|-----------------------------------------------------------------|---------- 
-|-8-------8-------------------------------------------------------|---------- 
-|-----9-----------------------------------------------------------|---------- 
-|---------------10----9----6----------6----9----10----9-----6-----|---------- 
-|--------------------------------7--------------------------------|---------- 
  G1  They won't fight back        They won't fight back they won't fight back   
 
-|-----------------------------------------------------------------|---------- 
-|-----------------------------------------------------------------|---------- 
-|-----------------------------------------------------------------|---------- 
-|-4-4-4-4-4-4-4-4-----------------4-4-4-4-4-4-4-4-----------------|---------- 
-|-2-2-2-2-2-2-2-2-2-2-2-2-2-2-2-2-2-2-2-2-2-2-2-2-2-2-2-2-2-2-2-2-|---------- 
-|-----------------3-3-3-3-3-3-3-3-----------------3-3-3-3-3-3-3-3-|---------- 
  G2                                                                             
 
-|----------------19-------19b21--19--------------19-------19b21---|---------- 
-|-----------------------------------------------------------------|---------- 
-|-----------------------------------------------------------------|---------- 
-|-----------------------------------------------------------------|---------- 
-|-----------------------------------------------------------------|---------- 
-|-----------------------------------------------------------------|---------- 
  G3                                                                             
 
-|-----------------------------------------------------------------||--------- 
-|-----------------------------------------------------------------||--------- 
-|-8---------8-----------------------------------------------------||--------- 
-|------9----------------------------------------------------------||--------- 
-|----------------10----9----6----------6----9----10----9----6-----||--------- 
-|---------------------------------7-------------------------------||--------- 
  G1They  won't fight back they don't know how they won't fight back  fade out   
 
-|-----------------------------------------------------------------||--------- 
-|-----------------------------------------------------------------||--------- 
-|-----------------------------------------------------------------||--------- 
-|-4-4-4-4-4-4-4-4-----------------4-4-4-4-4-4-4-4-----------------||--------- 
-|-2-2-2-2-2-2-2-2-2-2-2-2-2-2-2-2-2-2-2-2-2-2-2-2-2-2-2-2-2-2-2-2-||--------- 
-|-----------------3-3-3-3-3-3-3-3-----------------3-3-3-3-3-3-3-3-||--------- 
  G2                                                             fade out        
 
-|-19-------------19-------19b21---19------------19--------19b21---||--------- 
-|-----------------------------------------------------------------||--------- 
-|-----------------------------------------------------------------||--------- 
-|-----------------------------------------------------------------||--------- 
-|-----------------------------------------------------------------||--------- 
-|-----------------------------------------------------------------||--------- 
  G3                                                             fade out        
 
_______________________________________________________ 
Contribuição: Erik Mendes([email protected]) 

	  

Search Paypal
auto scroll beats size up size down change color hide chords drawings
tab show chords e-chords YouTube Clip e-chords hide all tabs e-chords go to top tab