Pearl Jam

home > Pearl Jam

Spin The black Circle Tab

Pearl Jam

Difficulty: BeginnerBeginner

tuner correct add songbook print version text version save to e-mail
chordsukulelecavacokeyboardtabbassdrummharmonicsflute Guitar Pro
chords

Spin The black Circle

  		intro:
|---------------------------------------------------------------------
|---------------------------------------------------------------------
|-------4-4-4-4-4-4-4-4----------4-4-4-4-4-4-4-4----------------------
|-------4-4-4-4-4-4-4-4----------4-4-4-4-4-4-4-4----------------------
|-----0-2-2-2-2-2-2-2-2--------0-2-2-2-2-2-2-2-2----------------------
|-5p3----------------------5p3----------------------------------------

then:
|--------------------10--10--10---|
|--------------------10--10--10---|
|-10--9--8-7-5-5-5---12b-12b-12b--|
|---------------------------------|
|--8--7--6-5-3-3-3----------------|
|---------------------------------|

verse:
|---------------------------------------------------------------------
|---------------------------------------------------------------------
|------4-4-4-4-4-4-4-4-4-4-4-4-4-4-4-4------4-4-4-4-4-4-4-4-4-4-4-4---
|------4-4-4-4-4-4-4-4-4-4-4-4-4-4-4-4------4-4-4-4-4-4-4-4-4-4-4-4---
|----0-2-2-2-2-2-2-2-2-2-2-2-2-2-2-2-2----0-2-2-2-2-2-2-2-2-2-2-2-2---
|-5p3----------------------------------5p3----------------------------

|---------------------------------------------------------------------
|---------------------------------------------------------------------
|---7-7-7-7-7-7-7-7-7-7-7-7-7-7----7-7-7-7-7-7-7-7-7-7-7-7-7-7--------
|---7-7-7-7-7-7-7-7-7-7-7-7-7-7----7-7-7-7-7-7-7-7-7-7-7-7-7-7--------
|---5-5-5-5-5-5-5-5-5-5-5-5-5-5----5-5-5-5-5-5-5-5-5-5-5-5-5-5--------
|7p5----------------------------7p5-----------------------------------

chorus:
|----------------------|
|----------------------|
|-10--9--8-7-5-5-5-----|
|----------------------|
|--8--7--6-5-3-3-3-----|
|----------------------|


solo:
|---------------------------------------------------------------------
|--4-4-4-5-4-3-3-3-4-3-2-2-2-3-2-1-1-1--------------------------------
|--5-5-5-6-5-4-4-4-5-4-3-3-3-4-3-2-2-2--------------------------------
|--5-5-5-6-5-4-4-4-5-4-3-3-3-4-3-2-2-2--------------------------------
|---------------------------------------------------------------------
|---------------------------------------------------------------------

after solo:
|---------------------------------------------------------------------
|---------------------------------------------------------------------
|------4-4-4-4-4-4-4-4-4-4-4-4-4-4-4-4------4-4-4-4-4-4-4-4-4-4-4-4---
|------4-4-4-4-4-4-4-4-4-4-4-4-4-4-4-4------4-4-4-4-4-4-4-4-4-4-4-4---
|----0-2-2-2-2-2-2-2-2-2-2-2-2-2-2-2-2----0-2-2-2-2-2-2-2-2-2-2-2-2---
|-5p3----------------------------------5p3----------------------------

|---------------------------------------------------------------------
|---------------------------------------------------------------------
|---7-7-7-7-7-7-7-7-7-7-7-7-7-7----7-7-7-7-7-7-7-7-7-7-7-7-7-7--------
|---7-7-7-7-7-7-7-7-7-7-7-7-7-7----7-7-7-7-7-7-7-7-7-7-7-7-7-7--------
|---5-5-5-5-5-5-5-5-5-5-5-5-5-5----5-5-5-5-5-5-5-5-5-5-5-5-5-5--------
|7p5----------------------------7p5-----------------------------------

|---------------------------------------------------------------------
|---------------------------------------------------------------------
|---9-9-9-9-9-9-9-9-9-9-9-9-9-9----9-9-9-9-9-9-9-9-9-9-9-9-9-9-9------
|---9-9-9-9-9-9-9-9-9-9-9-9-9-9----9-9-9-9-9-9-9-9-9-9-9-9-9-9-9------
|---7-7-7-7-7-7-7-7-7-7-7-7-7-7----7-7-7-7-7-7-7-7-7-7-7-7-7-7-7------
|9p7----------------------------9p7-----------------------------------

chorus

then:
|-8--8--8--8--8--8--8--8--|-15-16-15-14-15-14-13-14-13-12-------------
|-10-10-10-10-10-10-10-10-|-------------------------------------------
|-------------------------|-------------------------------------------
|-------------------------|-------------------------------------------
|-------------------------|-------------------------------------------
|-------------------------|-------------------------------------------
	  

Search Paypal
auto scroll beats size up size down change color hide chords drawings
tab show chords e-chords YouTube Clip e-chords hide all tabs e-chords go to top tab