Pearl Jam

home > Pearl Jam

Smile Tab

Pearl Jam

Difficulty: nolevelnolevel

tuner correct add songbook print version text version save to e-mail
chordsukulelecavacokeyboardtabbassdrumsharmonicsflute Guitar Pro
chords

Smile

Key:  E More
Smile Key BB
Smile Key CC
Smile Key C#C#
Smile Key DD(one step down)
Smile Key D#D#(half step down)
Smile Key EE(original key)
Smile Key FF(half step up)
Smile Key F#F#(one step up)
Smile Key GG
Smile Key G#G#
Smile Key AA
Smile Key A#A#
  		Intro/verses: E A B A 
intro fill: 
|------------------10------------------------------------------------- 
|-----------10h12----------------------------------------------------- 
|------7-------------------------------------------------------------- 
|--7h9---------------------------------------------------------------- 
|--------------------------------------------------------------------- 
|--------------------------------------------------------------------- 
 
2nd verse: 
|--------------------------------------------------------------------- 
|--------------------------------------------------------------------- 
|------------------2-2-----4-4---------------------------------------- 
|-------2--2--2-2--2-2-4-4-4-4---------------------------------------- 
|--2-2--2--2--0-0------2-2-----s6-4-2--------------------------------- 
|--0-0--------------------------------0------------------------------- 
 
|--------------------------------------------------------------------- 
|--------------------------------------------------------------------- 
|-----------------2-2-----4-4---7---7-9-7----------------------------- 
|------2--2--2-2--2-2-4-4-4-4-----9-------9s-------------------------- 
|--2-2-2--2--0-0------2-2--------------------------------------------- 
|--0-0---------------------------------------------------------------- 
 
chorus 
|-3--3--------------2-2----------------------------------------------- 
|-3--3-----1--------3-3----------------------------------------------- 
|-0--0-----0--------2-2-----this played over another------------------ 
|-0--0-----2--0h2p0-0-0-----------guitar playing: G C D--------------- 
|-2--2-2h3-3---------------------------------------------------------- 
|-3--3---------------------------------------------------------------- 
 
after chorus: 
|--------------------------------------------------------------------- 
|--------------------------------------------------------------------- 
|-9-9-9-9-9-9-9-9s16-16----------------------------------------------- 
|-7-7-7-7-7-7-7-7s14-14----------------------------------------------- 
|--------------------------------------------------------------------- 
|--------------------------------------------------------------------- 
 
solo: 
|--------------------------------------------------------------------- 
|--------------------------------------------------------------------- 
|-----7-9-7-----7-9~~-----7-9-7-----7-9~~-----7-9-7-----7------------- 
|-7h9-------7h9-------7h9-------7h9-------7h9-------7h9--------------- 
|--------------------------------------------------------------------- 
|--------------------------------------------------------------------- 
 
|-12-10--12-10-------12-10-------------------------------------------- 
|------------------7-------------7---leads into chorus---------------- 
|--------------7h9-----------7h9-------------------------------------- 
|--------------------------------------------------------------------- 
|--------------------------------------------------------------------- 
|--------------------------------------------------------------------- 
 
at end: E A B A w/: 
|--------------------------------------------------------------------- 
|--------------------------------------------------------------------- 
|--------------------------------------------------------------------- 
|--------------------------------------------------------------------- 
|------5-7-5-----5--7~----repeat and fade----------------------------- 
|--5h7-------5h7------------------------------------------------------ 
	  

Full key step upFull key step up
Half key step upHalf key step up
Half key step downHalf key step down
Full key step downFull key step down
Search Paypal
auto scroll beats size up size down change color hide chords drawings
tab show chords e-chords YouTube Clip e-chords hide all tabs e-chords go to top tab