Pearl Jam

home > Pearl Jam

Olympic Platinum Tab

Pearl Jam

Difficulty: nolevelnolevel

tuner correct add songbook print version text version save to e-mail
chordsukulelecavacokeyboardtabbassdrumsharmonicsflute Guitar Pro
chords

Olympic Platinum

  		 
Piano arranged for guitar 
, all notes relative to capo 
 
-|--0---0---0--1---3-1-0--0------0----0--1---1--3-1-0-|----------------------- 
-|--1---1---1--1----------1---1--1----1--1---1--------|----------------------- 
-|--0---0------0----------0------0-------0------------|----------------------- 
-|--2---2------2----------2------2-------2------------|----------------------- 
-|--3---3------3----------3------3--3----3------------|----------------------- 
-|----------------------------------------------------|----------------------- 
                                                                               
 
-|----------------------------0----0-0----0-0----1-1----0-|------------------- 
-|--3----3----3----1--1----1--1----1-1----1-1----1-1----1-|------------------- 
-|--3----3----3---------------0----0-0----0-0----0-0----0-|------------------- 
-|--3----3----3----3--3----3--2---------------------------|------------------- 
-|--1-------------------------3---------------------------|------------------- 
-|--------------------------------------------------------|------------------- 
         Olympic dream               olympic dream                             
 
-|--0----0-0----0-1----3-1-0--0----0-0----0-1---1-3-1-0-|--------------------- 
-|--1----1-1----1-1-----------1----1-1----1-1-----------|--------------------- 
-|--0----0-0----0-0-----------0----0-0----0-0-----------|--------------------- 
-|--2---------------------------------------------------|--------------------- 
-|--3---------------------------------------------------|--------------------- 
-|------------------------------------------------------|--------------------- 
  If I could reach to the sky and touch it for my country                      
 
-|----------------------------0----0-0---0-0---0-0---0-|---------------------- 
-|--3----3-3----1-1----1-3----1----1-1---1-1---1-1---1-|---------------------- 
-|--3----3-3------------------0----0-0---0-0---0-0---0-|---------------------- 
-|--3-----------3-3----3-3----2------------------------|---------------------- 
-|--1-------------------------3------------------------|---------------------- 
-|-----------------------------------------------------|---------------------- 
  Get some on my fingers          take in its smell                            
 
-|--------------------------------------------------------|------------------- 
-|--3----3-3----3-1----1-1----1-3----3----3-1------1----1-|------------------- 
-|--3----3-3----3-0----0-0----0-3----3----3-0----0-0----0-|------------------- 
-|--3----3-3----3-2----2-2----2-3----3----3-2----2-2----2-|------------------- 
-|--------------------------------------------------------|------------------- 
-|--------------------------------------------------------|------------------- 
     The smell of victory         land of the free   olympic                   
 
-|------------------------------------------------|--------------------------- 
-|------------------------------------------------|--------------------------- 
-|------------2-----------------------------------|--------------------------- 
-|--5---------3-----------5--------3--------3-3-3-|--------------------------- 
-|--5---------3-----------5--------3------3-1-1-1-|--------------------------- 
-|--3---------1-----------3--------1------1-------|--------------------------- 
   Dream         olympic  dream                                                
 
-|-------0-0----0-1---1-3-1-0--0----0-0----0-1----3-1-0--|-------------------- 
-|-------1-1----1-1------------1----1-1----1-1-----------|-------------------- 
-|--0--------------------------0----0-0------------------|-------------------- 
-|--2--------------------------2-------------------------|-------------------- 
-|--3--------------------------3-------------------------|-------------------- 
-|-------------------------------------------------------|-------------------- 
                        Olympic dream          my olympic                      
 
-|------------------------------0------0----0-1---1-3-1-0-|------------------- 
-|--3----3-3----1-1----1-1----1-1------1----1-1---1-------|------------------- 
-|--3----3-3--------------------0----0--------------------|------------------- 
-|--3----3-3----3-3----3-3----3-2-------------------------|------------------- 
-|--------------------------------------------------------|------------------- 
-|--------------------------------------------------------|------------------- 
   Dream          my promotion scheme           how hard can it                
 
-|--0----0----1----3-1-0--0----0-0----0-1----3-1-0--|------------------------- 
-|--1----1----1-----------1----1-1----1-1-----------|------------------------- 
-|--0----0----------------0----0-0----0-------------|------------------------- 
-|--2---------------------2-------------------------|------------------------- 
-|--3-----------------------------------------------|------------------------- 
-|--------------------------------------------------|------------------------- 
   Be            how can I jump           how high can I                       
 
-|------------------------------0----0-0----0-0----0-1--|--------------------- 
-|--3----3-3----1-1----1-1----1-1----1-1----1-1----1-1--|--------------------- 
-|--3----3-3--------------------0----0-0----0-0----0-0--|--------------------- 
-|--3------3----3-3----3-3----3-2-----------------------|--------------------- 
-|------------------------------------------------------|--------------------- 
-|------------------------------------------------------|--------------------- 
   Throw             how high I run           how long can I                   
 
-|---------------------------------------------------------------------|------ 
-|--3---------3--3------------3--1--------1--1-------------------1-----|------ 
-|--3---------3--3------------3--0--------0--0-------------------0-----|------ 
-|--3---------3--3------------3--2--------2--2-------------------2-----|------ 
-|---------------------------------------------------------------------|------ 
-|---------------------------------------------------------------------|------ 
   Hold my breath and stay underwater and wave my legs around in perfect       
 
-|----------------------------------------------------------------------|----- 
-|--3----------3--3------------------------3--1------------------1------|----- 
-|--3----------3--3------------------------3--0------------------0------|----- 
-|--3----------3--3------------------------3--2------------------2------|----- 
-|----------------------------------------------------------------------|----- 
-|----------------------------------------------------------------------|----- 
   Unison with my partner who doesn't really understand me or my olympic       
 
-|------------------------------------------------------------|--------------- 
-|------------------------------------------------------------|--------------- 
-|------------------------------------------------------------|--------------- 
-|--5-----------3-------------5----------3--3--3--3--3--3--3--|--------------- 
-|--5-----------3-------------5----------3--3--3--3--1--1--1--|--------------- 
-|--3-----------1-------------3----------1--1--1--1-----------|--------------- 
   Dream           my olympic dream                                            
 
-|--0----0-0----0-1----3---1---0-----------0------------------0------------|-- 
-|--1----1-1----1-1------------------------1------------------1------------|-- 
-|--0----0-0----0--------------------------0------------------0------------|-- 
-|--2----------------------------------------------------------------------|-- 
-|--3----------------------------------------------------------------------|-- 
-|-------------------------------------------------------------------------|-- 
                       I'll be like Dwight Stone I'll be like Bruce Jenner     
 
-|-1----------------------------3---1---0--------------------------------|---- 
-|-1------------------------------------------------------3--------------|---- 
-|-0------------------------------------------------------3--------------|---- 
-|--------------------------------------------------------3--------------|---- 
-|-----------------------------------------------------------------------|---- 
-|-----------------------------------------------------------------------|---- 
     I'll be like that girl who trained all her life as a distance runner      
 
-|-------------------------------------------------------0--|----------------- 
-|----------3------------------------3--3-------3--3-----1--|----------------- 
-|----------3------------------------3--3-------3--3-----0--|----------------- 
-|----------3------------------------3--3-------3--3-----2--|----------------- 
-|----------------------------------------------------------|----------------- 
-|----------------------------------------------------------|----------------- 
   And then tripped with a quarter mile to go    but I                         
 
-|--0-----------0-0-------------0-0-------0-0-------------------0--0--------|- 
-|--1-----------1-1-------------1-1-------1-1-------------------1--1--------|- 
-|--0-----------0-0-------------0-0-------0-0-------------------0--0--------|- 
-|--------------------------------------------------------------------------|- 
-|--------------------------------------------------------------------------|- 
-|--------------------------------------------------------------------------|- 
   I will get up   and I will run   I will run with the Georgia peach breeze   
 
-|----0-0----0-1---------3-1-0-0----------0-0-----0-1-----3-1-0---|----------- 
-|----1-1----1-1---------------1----------1-1-----1-1-------------|----------- 
-|----0-0----0-----------------0----------0-0-----0---------------|----------- 
-|-----------------------------2----------------------------------|----------- 
-|----------------------------------------------------------------|----------- 
-|----------------------------------------------------------------|----------- 
 And I         I will win        I will win my         my olympic              
 
-|-----------------------------0----0-0-0-0-0-------------|------------------- 
-|--3----3-3----3-3----3-3-3-3-1----1-1-1-1-1-1-1-1-1-1---|------------------- 
-|--3----3-3----3-3----3-3-3-3-0----0-0-0-0-0-0-0-0-0-0---|------------------- 
-|--3----3-3----3-3----3-3-3-3-2--------------2-2-2-2-2---|------------------- 
-|--------------------------------------------------------|------------------- 
-|--------------------------------------------------------|------------------- 
   Dream             my olympic dream  the gold's just not                     
 
-|--------------------------------------------------------------------------|- 
-|-3-------3-3----3-3---3-3---------------------3-3-------3-3----3-3----3-3-|- 
-|-2-------2-2----2-2---2-2---------------------2-2-------2-2----2-2----2-2-|- 
-|-4-------4-4----4-4---4-4---------------------4-4-------4-4----4-4----4-4-|- 
-|-5-------5-5----5-5---5-5---------------------5-5-------5-5----5-5----5-5-|- 
-|--------------------------------------------------------------------------|- 
  Good enough           and I don't even think of the bronze                   
 
-|--------------------------------------------------------------------------|- 
-|-3--3--3--3---3-----3-3----3-3----3-------------3-3----3-3---3-3------3---|- 
-|-2--2--2--2---2-----2-2----2-2----2-------------2-2----2-2---2-2------2---|- 
-|-4--4--4--4---4-----4-4----4-4----4-------------4-4----4-4---4-4------4---|- 
-|-5--5--5--5---5-----5-5----5-5----5-------------5-5----5-5---5-5------5---|- 
-|--------------------------------------------------------------------------|- 
  I'm living my life               for olympic platinum              olympic   
 
-|---------------------------------------------------------------------|------ 
-|-3----3----3----3----------3----3----3----------3--------------1-----|------ 
-|-2----2----2----2----------2----2----2----------2----2---0-----0-----|------ 
-|-4----4----4----4----------4----4----4----------4--------------2-----|------ 
-|-5----5----5----5----------5----5----5----------5--------------3-----|------ 
-|---------------------------------------------------------------------|------ 
   Dream          my olympic dream           I'll sing like Whitney            
 
-|---------------------------------------------||----------------------------- 
-|---------------1----------------3------------||----------------------------- 
-|---------------0----------------2------------||----------------------------- 
-|---------------2----------------4------------||----------------------------- 
-|---------------3----------------5------------||----------------------------- 
-|---------------------------------------------||----------------------------- 
  (Sing like Whitney)  my olympic dream                                        
 
 
_______________________________________________________ 
Contribuição: Henrique Fairbancks([email protected])