Pearl Jam

home > Pearl Jam

Mind Your Manners Tab

Pearl Jam

Difficulty: BeginnerBeginner

by educastilho

tuner correct add songbook print version text version save to e-mail
chordsukulelecavacokeyboardtabbassdrumsharmonicsflute Guitar Pro
chords

Mind Your Manners

  		First Tab so be gentle :) Its just a guideline for power chords to play it, just listen  
to the song for timing and stops. 

Intro : 

e|--------------------------------------------------------------------------| 
B|--------------------------------------------------------------------------| 
G|--------------------------------------------------------------------------| 
D|--10-9-9-9---9-9-9-10-9-9-9---9-9-9-10-9-9-9------------------------------| 
A|--------------------------------------------------------------------------| 
E|--------------------------------------------------------------------------| 


Verse 

e|--------------------------------------------------------------------------| 
B|--------------------------------------------------------------------------| 
G|---------10----10---------------------------------------------------------| 
D|--9999---10-10-10----9999---10--9--7--------------------------------------| 
A|--9999---8--10-8-----9999---10--9--7--------------------------------------| 
E|--7777------8--------7777---8---7--5--------------------------------------| 

Chorus 

e|--------------------------------------------------------------------------| 
B|--------------------------------------------------------------------------| 
G|--7777---5--7--5----2222---5555-------------------------------------------| 
D|--7777---5--7--5----2222---5555-------------------------------------------| 
A|--5555---3--5--3----0000---3333-------------------------------------------| 
E|--------------------------------------------------------------------------| 


Bridge part 

e|--------------------------------------------------------------------------| 
B|--------------------------------------------------------------------------| 
G|--2222----------------------2222------------------------------------------| 
D|--2222---5555--4444--5555---2222--5555--4444--2222------------------------| 
A|--0000---5555--4444--5555---0000--5555--4444--2222------------------------| 
E|---------3333--2222--3333---------3333--2222--0000------------------------| 

Play Verse behind solo 

Outro 

e|--------------------------------------------------------------------------| 
B|--------------------------------------------------------------------------| 
G|---------9999--------7-----7----------------------------------------------| 
D|--9999---9999--5555--7--7--7----------------------------------------------| 
A|--9999---7777--5555--5--7--5----------------------------------------------| 
E|--7777---------3333-----5-------------------------------------------------| 
	  

Search Paypal
auto scroll beats size up size down change color hide chords drawings
tab show chords e-chords YouTube Clip e-chords hide all tabs e-chords go to top tab