Pearl Jam

home > Pearl Jam

Long Road Tab

Pearl Jam

Difficulty: EasyEasy

by Apocalyptica

tuner correct add songbook print version text version save to e-mail
chordsukulelecavacokeyboardtabbassdrumsharmonicsflute Guitar Pro
chords

Long Road

Year: 1995 - Album: Live: 07-11-03 Mansfield, MA

  		Transcribed by: Thiago Oliveira da Costa 
Email: [email protected] 
(05/17/99) 
 
I think there are 2 guitars and both do kinda the same. 
 
Intro: 
|-2------------------------------------------------------------------- 
|-3------------------------------------------------------------------- 
|-2------------------------------------------------------------------- 
|-0------------------------------------------------------------------- 
|--------------------------------------------------------------------- 
|--------------------------------------------------------------------- 
 
Verse: 
|-2-------------2-------------------2--------------------------------- 
|-3-------------3-------------------3--------------------------------- 
|-2-------------2-------------------2--------------------------------- 
|-0-0-0-0-0-0-0-0-0-0-0-0-0-0-0-0-0-0--------------------------------- 
|--------------------------------------------------------------------- 
|--------------------------------------------------------------------- 
 
Pre Chorus: "Holding hands are daughters and sons..."                    
|-3-3-3-3-3-3-3-------2-2-2-2-2-2------------------------------------- 
|-3-3-3-3-3-3-3-------3-3-3-3-3-3------------------------------------- 
|-0-0-0-0-0-0-0-------2-2-2-2-2-2------------------------------------- 
|-0-0-0-0-0-0-0-------0-0-0-0-0-0------------------------------------- 
|-2-2-2-2-2-2-2------------------------------------------------------- 
|-3-3-3-3-3-3-3------------------------------------------------------- 
On the second time after this comes the Fill 1 
 
Chorus: "I have wished for so long"                               
|-0-0-0-0-0---0-0-0-0-0---2-2-2-2-2----------------------------------- 
|-0-0-0-0-0---2-2-2-2-2---3-3-3-3-3----------------------------------- 
|-0-0-0-0-0---2-2-2-2-2---2-2-2-2-2----------------------------------- 
|-2-2-2-2-2---2-2-2-2-2---0-0-0-0-0----------------------------------- 
|-2-2-2-2-2---0-0-0-0-0----------------------------------------------- 
|-0-0-0-0-0----------------------------------------------------------- 
 
Iterlude: "And the wind keeps roaring"                 
|-0-0-0-0-0---3-3-3-3-3---2-2-2-2-2----------------------------------- 
|-3-3-3-3-3---3-3-3-3-3---3-3-3-3-3----------------------------------- 
|-0-0-0-0-0---0-0-0-0-0---2-2-2-2-2----------------------------------- 
|-2-2-2-2-2---0-0-0-0-0---0-0-0-0-0----------------------------------- 
|-3-3-3-3-3---2-2-2-2-2----------------------------------------------- 
|-------------3-3-3-3-3----------------------------------------------- 
After, fill 1 also. 
 
Then 
|--------------------------------------------------------------------- 
|-----2---------2--------2-------2--------2--------2------------------ 
|-------3---------3--------3-------3--------3--------3---------------- 
|-0-0------0-0-------0-0-----0-0------0-0------0-0-------------------- 
|--------------------------------------------------------------------- 
|--------------------------------------------------------------------- 
 
The part where eddie sings "Ah, Ah, Ah" 
|-3-3-3-3-3-3-3-------2-2-2-2-2-2------------------------------------- 
|-3-3-3-3-3-3-3-------3-3-3-3-3-3------------------------------------- 
|-0-0-0-0-0-0-0-------2-2-2-2-2-2------------------------------------- 
|-0-0-0-0-0-0-0-------0-0-0-0-0-0------------------------------------- 
|-2-2-2-2-2-2-2------------------------------------------------------- 
|-3-3-3-3-3-3-3------------------------------------------------------- 
With fill 1 after also. 
 
Chorus and Chorus. 
 
then 
|-2-------------2-------------------2--------------------------------- 
|-3-------------3-------------------3--------------------------------- 
|-2-------------2-------------------2--------------------------------- 
|-0-0-0-0-0-0-0-0-0-0-0-0-0-0-0-0-0-0--------------------------------- 
|--------------------------------------------------------------------- 
|--------------------------------------------------------------------- 
 
At the end, very close to the end of the song. 
|--------------------------------------------------------------------- 
|--------------------------------------------------------------------- 
|--------------------------------------------------------------------- 
|-0------------------------------------------------------------------- 
|---0----------------------------------------------------------------- 
|--------------------------------------------------------------------- 
 
In the live version in the Chorus right before the A chord he does: 
|--------------------------------------------------------------------- 
|--------------------------------------------------------------------- 
|--------------------------------------------------------------------- 
|--------------------------------------------------------------------- 
|-0h2----------------------------------------------------------------- 
|--------------------------------------------------------------------- 
 
Fill 1. 
|-3-2-0-0-0-2--------------------------------------------------------- 
|-3-3-3-3-3-3-3------------------------------------------------------- 
|-2-2-2-2-2-2-2------------------------------------------------------- 
|-0-0-0-0-0-0--------------------------------------------------------- 
|--------------------------------------------------------------------- 
|--------------------------------------------------------------------- 
 

	  

Search Paypal
auto scroll beats size up size down change color hide chords drawings
tab show chords e-chords YouTube Clip e-chords hide all tabs e-chords go to top tab