Pearl Jam

home > Pearl Jam

Let The Records Play Tab

Pearl Jam

Difficulty: ExpertExpert

by PAULLET3

tuner correct add songbook print version text version save to e-mail
chordsukulelecavacokeyboardtabbassdrumsharmonicsflute Guitar Pro
chords

Let The Records Play

  		
E-mail: [email protected] 

Tuning: DADAAD (variation of Open D) 

Alrighty guys, once you're in the crazy tuning, here's the Intro: 
e|--------0-----0-----0----0-----0-----0-----0-----0---0---------------------| 
B|---------------------------------------------------------------------------| 
G|---------------------------0h3---3/5---3p0---------------------------------| 
D|----------------0h3--3/5---------------------0h3---0-----------------------| 
A|---0h3---3/5---------------------------------------------------------------| 
E|---------------------------------------------------------------------------| 

e|--------0-----0-----0----0-----0-----0-----0-----0---0---------------------| 
B|---------------------------------------------------------------------------| 
G|---------------------------0h3---3/5---3p0---3/5---5------15---------------| 
D|----------------0h3--3/5---------------------------------------------------| 
A|---0h3---3/5---------------------------------------------------------------| 
E|---------------------------------------------------------------------------| 

Then it goes to main riff sort of part: 
e|----------------------------0-0--------------------------------------------| 
B|----------------------------5-5--------------------------------------------| 
G|---------------------------------------------------------------------------| 
D|---0-3-0---0-3-5-3-0-3-0---------------------------------------------------| 
A|---0-3-0---0-3-5-3-0-3-0---------------------------------------------------| 
E|---0-3-0---0-3-5-3-0-3-0---------------------------------------------------| 

Play that once, then during the verse, there is a sort of odd variation: 

e|------------------------------------0-0------------------------------------| 
B|------------------------------------5-5------------------------------------| 
G|---------------------------------------------------------------------------| 
D|---0-3-0---0-3-0---0-3-5-3-0-3-0-------------------------------------------| 
A|---0-3-0---0-3-0---0-3-5-3-0-3-0-------------------------------------------| 
E|---0-3-0---0-3-0---0-3-5-3-0-3-0-------------------------------------------| 

Here is the Chorus: 
e|---1--1--3--3--1--1--3--3--1--1--3--3---3--3--3--3--3----------------------| 
B|---1--1--3--3--1--1--3--3--1--1--3--3---3--3--3--3--3----------------------| 
G|---3--1--5--3--3--1--5--3--3--1--5--3---3--3--3--5--6----------------------| 
D|---3--1--5--3--3--1--5--3--3--1--5--3---3--5--3--5--6----------------------| 
A|---1--1--3--3--1--1--3--3--1--1--3--3---3--3--3--3--3----------------------| 
E|---1--1--3--3--1--1--3--3--1--1--3--3---3--3--3--3--3----------------------| 

That's all I've got for this one. Hopefully somebody (or maybe myself)'ll come along  
later and figure out the rest. Enjoy! 

************************************ 
KEY TO SUCCESS: 

| /   slide up 
| \   slide down 
| h   hammer-on 
| p   pull-off 
| ~   vibrato 
| +   harmonic 
| x   Mute note 
| ^   Bend 
************************************ 

E-mail me^if you got any questions or tabbing suggestions/requests! All styles of music  
are cool man! 
	  

Full key step upFull key step up
Half key step upHalf key step up
Half key step downHalf key step down
Full key step downFull key step down
Search Paypal
auto scroll beats size up size down change color hide chords drawings
tab show chords e-chords YouTube Clip e-chords hide all tabs e-chords go to top tab